Oops, an error
Loading. Please wait.

Lejos Chords

32 views 3 this week
no commentswrite comment
1 2 3 4 5
3 more votes to show rating
add to favorites
×
Save as Personal and add changes to this tab that will be seen only by you. Learn more ›
launch autoscroll
font size
0
reset
transpose
0
reset
simplify chords
display chords
guitar tuner
Autoscroll
slow
fast
+/-
esc
set tempo
stop
Strumming
There is no strumming pattern for this song yet. and get +5 IQ
D---------7h5-----------7-----
A-5-5---5-----7-5-5---5---5-7- x2
E-----5-------------5---------

  Dm
D---------7h5-----------7-----
A-5-5---5-----7-5-5---5---5-7- x2
E-----5-------------5---------

           Dm
Me diste tu vida
con todo cariño
                   Gm A7sus4 Gm
en las noches escondidas
             A7
me diste un mundo
    F#m7     A7
que solo existía
  F#m7           Dm       e|-10-12-13-12-10-10-|
detrás de tus cortinas    B|-10-10-10-10-10-10-|

             Dm
hasta que lo viste
venir poco a poco
             Gm
devorando silencios
A7sus4      Gm
arrastrando recuerdos
              A7   F#m7 A7
torturando anhelos
   F#m7           Dm
el vacío en su apogeo

          C G7 Dm
Y ahora estas Lejos!!!
          C G7 Dm          B7
y ahora estas lejos de mi
                  A7
fui parte de tus miedos
                 Dm
tambien de tus deseos

Solo
  Dm                Gm
e----------------------------------------
B----------------------------------------
G----------------------------------------
D-------10-12-10----12-------------------
A-12-13----------13----10-10-12-13-12-10-
E----------------------------------------

      A7               Dm
e-----------------------------13-12-12-
B-----------------------------11-11-11-
G--------------------------------------
D--------------------------------------
A-----12-------10----------------------
E--12----12-13----13-12-12-10----------

           Dm
Tenías que correr
para darle sentido
            Gm
a todos tu caminos
 A7sus4       Gm
tenías que escapar
               A7
encontrar otro lugar
F#m7      A7
donde estuvieras
           Dm    B7
a gusto contigo
                   A7
nos tuvimos que partir amooor

          C G7 Dm
Y ahora estas Lejos!!!
          C G7 Dm          B7
y ahora estas lejos de mi
                   A7
fui parte de tus miedos
                 A7
tambien de tus deseos
                   Dm
fuiste parte de mi vida
                    B7
y también de mis secretos
                      A7
fuimos parte de un misterio
amoooor

Final
  F   E-5 D#maj7 Dm       x2
e-8----7----6-----5---
B-10---9----8-----6---
G-10---9----7-----7---
D-10---8----8-----7---
A-8----7----6-----5---
E---------------------
Suggest correction
Give kudos to tab author, rate the tab!
1 2 3 4 5
comments
print report bad tab
guest
You may want to rate the tab now too:
select rating
Wanna post a correction for this tab? Suggest correction