Oops, an error
Loading. Please wait.

Si Te Vas Tab

64 views 1 this week
no commentswrite comment
1 2 3 4 5
3 more votes to show rating
add to favorites
×
Save as Personal and add changes to this tab that will be seen only by you. Learn more ›
×
You can save this tab as Personal to edit and correct it or add notes. All changes will be seen only by you. Learn more »
save as personal
new!
launch autoscroll
font size
0
reset
how to read this tab
guitar tuner
Autoscroll
slow
fast
+/-
esc
set tempo
stop
Intro
    Cm
E |------10b------10b-||
A |----------------9b-||
D |-------------------||
G |-------------------||
B |-------------------||
E |-6-3------6-3------||

      Cm
Tu silencio
              G7
me corta en pedazos,
              G#
me quema los huesos,
        Cm
es un balazo.

        Cm
Sino volteas
               G7
mi cuerpo se avienta,
            G#
buscando repuestas
            Cm
buscando tu lengua.

    Cm            G7               G7               Cm
E |----------------------------------------------------------||
A |-8-4-----4-6-9989-8-6-3-3-4-6-9989-8-6-3-3-4-66-4-3-8-4---||
D |-----5-5------------------------------------------------5-||
G |----------------------------------------------------------||
B |----------------------------------------------------------||
E |----------------------------------------------------------||

     Cm
Un momento,
                 G7
una grieta en el cielo,
               G#
una fuga en la furia,
un vacío que inquieta
                    Cm
es la entrada al infierno.

      A#
Si te vas
        Cm
vete gritando,
         G#
quiero saber que me quisiste
                  A#7
que me vas a extrañar     (Coro x2)

    Cm            G7               G7               Cm
E |----------------------------------------------------------||
A |-8-4-----4-6-9989-8-6-3-3-4-6-9989-8-6-3-3-4-66-4-3-8-4---||
D |-----5-5------------------------------------------------5-||
G |----------------------------------------------------------||
B |----------------------------------------------------------||
E |----------------------------------------------------------||

    Cm                G7                        G7
E |-------------------------------------------------------||
A |-------------------------------------------------------||
D |---------4-5-7-8-12-10-8-7-8h10h8-10h12h10-13-13h20h19-||
G |-5-3-5-6-----------------------------------------------||
B |-------------------------------------------------------||
E |-------------------------------------------------------||

                        Cm
E |---------------------------------------||
A |---------------------------------------||
D |-17-19-20-19-12-13-12-8----8---8---8---||
G |------------------------10---9---8---7-||
B |---------------------------------------||
E |---------------------------------------||

        A#7              G#
Con los ojos vendados me quedo,
     G#7                 Cm
extrañando el olor de tu pecho,
G#                      G
clavo en el suelo estos gritos
              Cm
que buscan el miedo.

     A#7           G#
Por favor voltea y dime
       G#7                Cm
que el amor que me tienes existe.
      G#              Cm
Que mañana vendrá la resaca
                G
a limpiarnos el alma.

      A#
Si te vas
        Cm
vete gritando,
         G#
quiero saber que me quisiste
                  A#7
que me vas a extrañar     (Coro x6)
Suggest correction
Give kudos to tab author, rate the tab!
1 2 3 4 5
comments
print report bad tab
guest
Wanna post a correction for this tab? Suggest correction