Oops, an error
Loading. Please wait.

Tirame Chords

31 views 1 this week
no commentswrite comment
1 2 3 4 5
3 more votes to show rating
add to favorites
launch autoscroll
font size
0
reset
transpose
0
reset
display chords
guitar tuner
×
Best way to learn
"Tirame"
Autoscroll
slow
fast
+/-
esc
set tempo
stop
Intro
e|----------------------------------|
A|----------------------------------|
D|------0-------0-------2---4-2-----|
G|--------2-------2---2---2-----4-5-|
B|----2-------0-----2---------------|
E|--0-------2-----------------------| 2x

Em     E* Bm
Tírame
                Em    E*  Bm
Atrévete a intentarlo
               Em   E*  Bm
Siquiera a pensarlo
                Em   E*  Bm
Veras lo que te hago
    Em    E*  Bm
e|---16---15---11-|
  Empújame
               Em     E*  Bm
e|-------------16-----15---11-|
Con todas tus fuerzas
             Em    E*  Bm
e|-----------16----15---11-|
Desde lo más alto
                       Em    E*  Bm
e|---------------------16----15---7-|
Para que veas que me levanto


   Em   E*   Bm
Tirame  (x4)

Em   E*   Bm

   Em   E*   Bm
Escucha
La verdad de mis gritos
El andar de mis uñas
La razon de mis sueños

   Em   E*   Bm
Tirame (x4)

A      G#       G        F#
  Tirame   Tirame    Tirame
A      G#
  Tirame con todas tus fuerzas
     G
Tirame hasta que no puedas
     F#
Tirame hasta que te mueras
     F
Tirame

   Em   E*   Bm
Tirame (x8)


Final
   Em   E*   Bm
E------------------------14/15h-14h------
A-12h-13-12-17h-12-13-12------------12/0-


   Em*

E--0----
A--0----
D--2----
G--2----
B--0----
E--2----
Suggest correction
Give kudos to tab author, rate the tab!
1 2 3 4 5
comments
print report bad tab
guest
You may want to rate the tab now too:
select rating
Wanna post a correction for this tab? Suggest correction