Oops, an error
Loading. Please wait.
41 views 1 this week
no commentswrite comment
1 2 3 4 5
3 more votes to show rating
add to favorites
launch autoscroll
font size
0
reset
transpose
0
reset
simplify chords
display chords
guitar tuner
×
Best way to learn
"Tuyo"
Autoscroll
slow
fast
+/-
esc
set tempo
stop
Tuyo
San Pascualito Rey

  Cm            Gsus
E-----3---------3---3-------
B-------4---4---3---3-------
G-5-5-----5---5-5---5-------
D-5-------------5---5-------
A---------------------------
E---------------------------

Cm                   Gm7
Colgado de tu dulce cuello
Escuchando de tu boca el trueno
Cm                  Gm
Que eriza mi cuerpo entero
Que suda como vela ardiendo.

Cm                   Gm7
Conquistar tu cuerpo bello
Construir una ciudad en tu cabello
Cm                       Gm
Arar con mis dientes tus labios
Cultivar mi nombre en tu lengua.

Solo
  Cm Gsus Gm7
E-3---3---3------
B-4---3---3------
G-5---5---3------
D-5---5---3------
A-----5---5------
E---------3------

  Cm
E-3---4---3-----
B-4---3---3-----
G-5---5---3-----
D-5---5---5-----
A---------------
E---------------

Cm                 Gm7
Cuando creo que te conquiste
basta con descansar mi cabeza
Cm                 Gm
En tu pecho que se levanta
Cm                  Gm      Cm        Gm
como un cisne al mar y escuchar?
      Csus
Y escuchar?

Cm    Csus    Cm

         Csus    Cm
Soy todo tuyo

         Csus    Cm
Soy todo tuyo

         Csus    Cm
Soy todo tuuuyo

         Csus    Cm
Soy todo tuuuyo

Final
Csus    Cm    Csus    Cm
E-23-22-20/15-18/23-22-20/15-18/23-22-20/15-18/23-
Suggest correction
Give kudos to tab author, rate the tab!
1 2 3 4 5
comments
print report bad tab
guest
You may want to rate the tab now too:
select rating
Wanna post a correction for this tab? Suggest correction