Oops, an error
Loading. Please wait.

Zeppo Tab

version 1
version 1

Solo

Whole song

Interactive

283 views 1 this week
4 commentsread comments
1 2 3 4 5
1 last vote to show rating
add to favorites
launch autoscroll
font size
0
reset
how to read this tab
guitar tuner
Autoscroll
slow
fast
+/-
esc
set tempo
stop
Help us to improve Ultimate-Guitar.com Take our survey!
×
Difficulty
intermediate
-----------------------------------------------------------------------------
                             Zeppo - Sanctity
-----------------------------------------------------------------------------

Tempo:230

Tuning:DADGBE

e|---------------------------------------------------------------------------|
B|--17^------------17^-------------------------------------------------------|
G|--------------------18^-----17-(17)---------17-----------------------------|
D|---------------------------------------------------------------------------|
A|---------------------------------------------------------------------------|
D|---------------------------------------------------------------------------|

e|------------------------------------------------------------------14-16-17-|
B|---------------------------------------------------------14-15-17----------|
G|-14~--------13~---------13-14-13--------------13-14-16---------------------|
D|-----------------------------------16-14-16--------------------------------|
A|---------------------------------------------------------------------------|
D|---------------------------------------------------------------------------|

e|-19---17---16---------------18-19-18----------------------------------------|
B|--------------------18-19--------------19-18-17-------17--------------------|
G|--------------------------------------------------18-------18-17-16---------|
D|---------------------------------------------------------------------19--14-|
A|----------------------------------------------------------------------------|
D|----------------------------------------------------------------------------|

e|---------------------------------------------------------------------------|
B|-17^-----------17^---------17-16-15-14-------------------------------------|
G|---------------------------------------16-14-13-14-13----------------------|
D|------------------------------------------------------14-------------------|
A|---------------------------------------------------------------------------|
D|---------------------------------------------------------------------------|

e|----------14-16-17----------16-17-19----------17-19-21---------19-21-22-19--|
B|-14-15-17----------16-17-19----------17-19-21----------19-21-22-------------|
G|----------------------------------------------------------------------------|
D|----------------------------------------------------------------------------|
A|----------------------------------------------------------------------------|
D|----------------------------------------------------------------------------|

| #  Hold Note
| () Ghost note
| ^  Full Bend
| /  slide up
| \  slide down
| h  hammer-on
| p  pull-off
| ~  vibrato
| +  harmonic
| x  Mute note
=============================================================================
Suggest correction
Give kudos to tab author, rate the tab!
1 2 3 4 5
comments
print report bad tab
4 comments total. Showing first comments.
+1 reply
brostert 117 Jun 08, 2007 07:25 PM

MMMMM, this tab looks awfully familiar to the one i posted a months or so ago. I individualised the middle part of the solo, so it seems rather strange that you have managed to 'individualised' your tab EXACTLY the same as mine. PATHETIC.

0 reply
shav0r 52 Jul 07, 2007 09:14 AM

The final part of it sounds wrong, right at the end where it has the ascending 3 notes per string thing.

-1 reply
Monkeymas 163 Sep 18, 2007 02:30 PM

every tab for this song is the same and it sounds really wrong

guest
You may want to rate the tab now too:
select rating
Wanna post a correction for this tab? Suggest correction