Oops, an error
Loading. Please wait.

Zeppo Tab

version 1
version 1

Intro

Solo

Whole song

Interactive

1,313 views 1 this week
2 commentsread comments
1 2 3 4 5
accurate
x 5
add to favorites
launch autoscroll
font size
0
reset
how to read this tab
guitar tuner
Tab Pro tools
  • play this tab
  • loop segment
  • change instrument
  • show fretboard
  • metronome
Autoscroll
slow
fast
+/-
esc
set tempo
stop
Difficulty
intermediate
Band:      Sanctity
Song:      Zeppo
Album:     Road To Bloodshed
Tuning:    DADGBE (Dropped D)

Guitar 1 (Zeff)
Guitar 2 (Jared)

Intro:

e]-------------------------------------------------------|
B]-------------------------------------------------------|
G]-------------------------------------------------------|
D]-------------------------------------------------------|
A]-----2-----3-----0-----3-----2-3-----2-----3--5-4-0-2--|
D]-2-2---2-2---2-2---2-2---2-2-----2-2---2-2----5-4-0-2--|

e]-------------------------------------------------------|
B]-------------------------------------------------------|
G]-------------------------------------------------------|
D]-------------------------------------------------------|
A]-----2-----3-----0-----3-----2-3-----2-----3--5-4-0-2--|
D]-2-2---2-2---2-2---2-2---2-2-----2-2---2-2----5-4-0-2--|

Verse:

Zeff:
e]------------------------------------------------------------------|
B]------------------------------------------------------------------|
G]------------------------------------------------------------------|
D]------------------------------------------------------------------|
A]-2-2-2-2-2-2-2-2-------0---------2-2-2-2-2-2-2-2------0-----------|
D]-2-2-2-2-2-2-2-2-2-4-5---5-4-2-2-2-2-2-2-2-2-2-2-2-4-5-5-4-2-2----|

Jared:

e]------------------------------------------------------------------|
B]------------------------------------------------------------------|
G]------------------------------------------------------------------|
D]------------------------------------------------------------------|
A]-2-2-2-2-2-2-2-2-2-2-2-2-2-2-2-2-2-2-2-2-2-2-2-2-2-2-2-2-2-2-2----|
D]-2-2-2-2-2-2-2-2-2-2-2-2-2-2-2-2-2-2-2-2-2-2-2-2-2-2-2-2-2-2-2----|

Zeff:
e]------------------------------------------------------------------|
B]---------------------------------4-3------------------------------|
G]-------------------------2-3-2-3----------------------------------|
D]-----------------0-1-0-1------------------------------------------|
A]-0-0-0-0-0-0-0-0---------------------0-0-0-0-0-0-0-0-0-0-0-0-0-0--|
D]-0-0-0-0-0-0-0-0---------------------0-0-0-0-0-0-0-0-0-0-0-0-0-0--|

Jared:

e]------------------------------------------------------------------|
B]------------------------------------------------------------------|
G]------------------------------------------------------------------|
D]------------------------------------------------------------------|
A]-0-0-0-0-0-0-0-0-0-0-0-0-0-0-0-0-0-0-0-0-0-0-0-0-0-0-0-0-0-0-0-0--|
D]-0-0-0-0-0-0-0-0-0-0-0-0-0-0-0-0-0-0-0-0-0-0-0-0-0-0-0-0-0-0-0-0--|

Chorus:

(Both)

e]--------------------------------------------------------------------|
B]--------------------------------------------------------------------|
G]--------------------------------------------------------------------|
D]-5-5-5-5-5-5-5-4-4-4-4-5-5-5-5-5-5----------------------------------|
A]-3-3-3-3-3-3-3-5-5-5-5-7-7-7-7-7-7----------------------------------|
D]--------------------------------------------------------------------|

Interlude:

e]-------------------------------------------------------|
B]-------------------------------------------------------|
G]-------------------------------------------------------|
D]-------------------------------------------------------|
A]-0-2-0-2-x-x-x-0-2-0-2-x-x-x-0-2-0-2-x-x-x-0-2-0-2-----|
D]-0-2-0-2-x-x-x-0-2-0-2-x-x-x-0-2-0-2-x-x-x-0-2-0-2-----|

Harmonised Solo

Zeff

e]-------------------------------------------------------|
B]-------------------------------------------------------|
G]-----5-4-2-----7-5-4------5-4-2------------------------|      x2
D]-----------4-5-----------------------------------------|
A]-2-3------------------2-3--------0-2-0-2---------------|
D]---------------------------------0-2-0-2---------------|

Jared:

e]-------------------------------------------------------|
B]-------------------------------------------------------|
G]---------- --------------------------------------------|      x2
D]-----5-4-2----4-5-7-5-4-----5-4-2----------------------|
A]-2-3--------------------2-3----------0-2-0-2-----------|
D]-------------------------------------0-2-0-2-----------|


Zeff’s Solo:

e]--------------------------------------10-8-7-8-7-------------|
B]--------------------------8-8-7-7-8-5------------10-8-7 8 10 |
G]--7--------------7-------------------------------------------|
D]----10-9-7---------10-9--------------------------------------|
A]-----------10-9----------------------------------------------|
D]-------------------------------------------------------------|

e]--7-8-10-12-10-8-7-------------------------------|
B]-------------------10-8-7-------12-10------------|
G]--------------------------9-----------12-11-9-11-|
D]----------------------------10-------------------|
A]-------------------------------------------------|
D]-------------------------------------------------|


e]-------------------------------------------------------|
B]-------------------------------------------------------|
G]----------------------------7-9------------------------|
D]---------------------7-9-10----------------------------|
A]---------7-9-10-9-10-----------------------------------|
D]--7-9-10-----------------------------------------------|


Intro:          (X 2)
Verse:          (X 4)
Chorus:         (x 4)
Interclude:     (X 2)
Harmonized Solo:
Zeff's Solo:
Verse:          (X 4)
Chorus:         (X 8)
Verse:          (X 4)

Most of it seems accurate to me...its a great song!
Use and Abuse this tab as much as you want...and keep it metal!
comments
print report bad tab
2 comments total.
0 reply
shav0r wrote on July 7 2007, 09:16 am

Excellent tab

0 reply
FargoDog wrote on December 24 2007, 12:29 pm

The last note of the solos a pinch and you didnt put up the intro solo but otherwise awesome

I want to post or [tab]
guest
You may want to rate the tab now too:
select rating
Please do not post tabs as comments. Select "correction" instead!