Oops, an error
Loading. Please wait.

Closer Tab

version 1
version 1

Whole song

Interactive

2,676 views 1 this week
no commentswrite comment
1 2 3 4 5
excellent!
x 8
add to favorites
launch autoscroll
font size
0
reset
how to read this tab
guitar tuner
Autoscroll
slow
fast
+/-
esc
set tempo
stop
Help us to improve Ultimate-Guitar.com Take our survey!
×
Author
Difficulty
SOS_11 133
intermediate
--------------------------------------------------------------------
                          Closer by Sanctus Real
--------------------------------------------------------------------

Tabber: SOS_11
E-mail: jeffery_harper@hotmail.com

Guitar's are in standard tuning tuned down 1/2 step

. = Palm Mute
/ = Slide
^ = Bend

Intro and Verse 1/2/3
     .  .  .  .  .  .  .  .     .  .  .  .  .  .  .  .
eb||--------------------------|---------------------------|
Bb||--------------------------|---------------------------|
Gb||--5--5--5--4--4--4--4--4--|--4--4--4--5--7--7--7--7--*|
Db||--5--5--5--5--5--5--5--5--|--2--2--2--5--7--7--7--7--*|
Ab||--3--3--3--5--5--5--5--5--|--2--2--2--3--5--5--5--5---|
Eb||-----------3--3--3--3--3--|--0--0--0------------------|

Guitar Fill

Lead Guitar

eb||--------------------------|----------------------------|
Bb||--------------------------|----------------------------|
Gb||--5--5--5--5--------------|--------0--------0----------|
Db||--5--5--5--5--5--5--5--5--|-----2--------4-----4-------|
Ab||--3--3--3--3--5--5--5--5--|--3------3/5----------------|
Eb||--------------3--3--3--3--|----------------------------|

Rhythm Guitar

eb||--------------------------|----------------------------|
Bb||--------------------------|----------------------------|
Gb||--5--5--5--5--------------|--5--5--5--5--7--7--7--7----|
Db||--5--5--5--5--5--5--5--5--|--5--5--5--5--7--7--7--7----|
Ab||--3--3--3--3--5--5--5--5--|--3--3--3--3--5--5--5--5----|
Eb||--------------3--3--3--3--|----------------------------|

Chorus

Lead Guitar

eb||--------------------------|----------------------------|
Bb||--------------------------|----------------------------|
Gb||--5--5--5--5--------------|--------0--------0----------|
Db||--5--5--5--5--5--5--5--5--|-----2--------4-----4-------|
Ab||--3--3--3--3--5--5--5--5--|--3------3/5----------------|
Eb||--------------3--3--3--3--|----------------------------|

Rhythm Guitar

eb||--------------------------|----------------------------|
Bb||--------------------------|----------------------------|
Gb||--5--5--5--5--------------|--5--5--5--5--7--7--7--7----|
Db||--5--5--5--5--5--5--5--5--|--5--5--5--5--7--7--7--7----|
Ab||--3--3--3--3--5--5--5--5--|--3--3--3--3--5--5--5--5----|
Eb||--------------3--3--3--3--|----------------------------|

Lead Guitar

eb||--------------------------|----------------------------|
Bb||--------------------------|----------------------------|
Gb||--5--5--5--5--------------|--------0--------0----------|
Db||--5--5--5--5--5--5--5--5--|-----2--------4-----4-------|
Ab||--3--3--3--3--5--5--5--5--|--3------3/5----------------|
Eb||--------------3--3--3--3--|----------------------------|

Rhythm Guitar

eb||--------------------------|----------------------------|
Bb||--------------------------|----------------------------|
Gb||--5--5--5--5--------------|--5--5--5--5--7--7--7--7----|
Db||--5--5--5--5--5--5--5--5--|--5--5--5--5--7--7--7--7----|
Ab||--3--3--3--3--5--5--5--5--|--3--3--3--3--5--5--5--5----|
Eb||--------------3--3--3--3--|----------------------------|

Both Guitars

eb||--------------------------|--------------------------|
Bb||--------------------------|--------------------------|
Gb||--5--5--xxxx--------------|--7--7--7--7--7--7--7--7--|
Db||--5--5--xxxx--5--5--5--5--|--7--7--7--7--7--7--7--7--|
Ab||--3--3--xxxx--5--5--5--5--|--5--5--5--5--5--5--5--5--|
Eb||--------xxxx--3--3--3--3--|--------------------------|

 Lead Guitar

eb||--------------------------|--------------------------|
Bb||--------------------------|--------------------------|
Gb||--------0--------0--------|--------------------------|
Db||-----2--------4-----4-----|--5--5--5--5--5--5--5--5--|
Ab||--3--------5--------------|--5--5--5--5--5--5--5--5--|
Eb||--------------------------|--3--3--3--3--3--3--3--3--|

Rhythm Guitar

eb||--------------------------|--------------------------|
Bb||--------------------------|--------------------------|
Gb||--5--5--5--7-----7--7--7--|--------------------------|
Db||--5--5--5--7-----7--7--7--|--5--5--5--5--5--5--5--5--|
Ab||--3--3--3--5-----5--5--5--|--5--5--5--5--5--5--5--5--|
Eb||--------------------------|--3--3--3--3--3--3--3--3--|

Lead Guitar Lick in Verse 3

eb||--10--|--8--7--|--5--3--|--2--3--|
Bb||------|--------|--------|--------|
Gb||------|--------|--------|--------|
Db||------|--------|--------|--------|
Ab||------|--------|--------|--------|
Eb||------|--------|--------|--------|

Bridge/Outro

Lead Guitar

eb||----------|--10----3--|-----------|--0----0--|
Bb||--8----7--|--8-----1--|--8----10--|--3----1--|
Gb||--9----7--|--0-----0--|--9----7---|--0----0--|
Db||--9----7--|--8-----2--|--9----7---|--4----2--|
Ab||--7----9--|--9-----3--|--7----9---|--5----3--|
Eb||----------|-----------|-----------|----------|

Rhythm Guitar (Just listen and you'll know when it comes back in)
      .  .  .  .  .  .  .  .     .  .  .  .  .  .  .  .
eb||--------------------------|--------------------------|
Bb||--------------------------|--------------------------|
Gb||--------------------------|--7--7--7--4--4--4--4--4--|
Db||--5--5--5--7--7--7--7--7--|--7--7--7--4--4--4--4--4--|
Ab||--5--5--5--7--7--7--7--7--|--5--5--5--2--2--2--2--2--|
Eb||--3--3--3--5--5--5--5--5--|--------------------------|


Solo (Lead Guitar)

eb||----------------------------------|----------------------------------|
Bb||--12------12------12------12--13--|--13------13------12------12------|
Gb||------12------12------12----------|------12------12------12------12--|
Db||----------------------------------|----------------------------------|
Ab||----------------------------------|----------------------------------|
Eb||----------------------------------|----------------------------------|

|----------------------------------|----------------------|
|--12------12------12------12------|--10------8-----------|
|------12------12------12------12--|----------------------|
|----------------------------------|----------------------|
|----------------------------------|----------------------|
|----------------------------------|----------------------|

|---------------------------|--------------------14--15--17--|
|--17^------17------15--17--|--15----15--17--15--------------|
|---------------------------|--------------------------------|
|---------------------------|--------------------------------|
|---------------------------|--------------------------------|
|---------------------------|--------------------------------|

|--17--15--15--17--19--17--17--15--|--17--19--19--20--20--19--19--17--|
|----------------------------------|----------------------------------|
|----------------------------------|----------------------------------|
|----------------------------------|----------------------------------|
|----------------------------------|----------------------------------|
|----------------------------------|----------------------------------|

|--15--|
|------|
|------|
|------|
|------|
|------|

Rhythm Guitar Solo Chords

eb||--------------------------|--------------------------|
Bb||--------------------------|--------------------------|
Gb||--------------------------|-----------5--5--5--5--5--|
Db||--2--2--2--4--4--4--4--4--|--5--5--5--5--5--5--5--5--|
Ab||--2--2--2--4--4--4--4--4--|--5--5--5--3--3--3--3--3--|
Eb||--0--0--0--2--2--2--2--2--|--3--3--3-----------------|


Order

Intro
Verse 1
Guitar Fill
Verse 2
Chorus
Verse 3
Chorus
Bridge
Solo
Chorus x2
Outro

I've played guitar for a while now but this is my first official tab.  I've tabbed alot 
my own stuff, but I've noticed the lack of christian influence on this site so I tabbed 
this song.  If you haven't heard it then listen to it.  You'll enjoy it, I promise.  Please rate...Godbless
Suggest correction
What's this?
You can suggest a correction to this tab. Community and Mods will review your correction and vote to approve or reject it.
comments
print report bad tab
guest
You may want to rate the tab now too:
select rating
Please do not post tabs as comments. Select "correction" instead!