Oops, an error
Loading. Please wait.

Collide tab

by Sandbox
61 views 1 this week
no commentswrite comment
1 2 3 4 5
3 more votes to show rating
add to favorites
×
Save as Personal and add changes to this tab that will be seen only by you. Learn more ›
×
You can save this tab as Personal to edit and correct it or add notes. All changes will be seen only by you. Learn more »
launch autoscroll
font size
0
reset
how to read this tab
guitar tuner
edit
Autoscroll
slow
fast
+/-
esc
set tempo
stop
[Intro]

e|-----------------------------|------------------------------------|
B|-----------------------------|------------------------------------|
G|-----------------------------|------------------------------------|
D|-3/5-5-5-5-x-x-5-x-x-5-x-x-3-|-3-3/5-5-5-5-x-x-5-x-x-5-x-x-3--3---|
A|-3/5-5-5-5-x-x-5-x-x-5-x-x-3-|-3-3/5-5-5-5-x-x-5-x-x-5-x-x-3--3---|
E|-1/3-3-3-3-x-x-3-x-x-3-x-x-1-|-1-1/3-3-3-3-x-x-3-x-x-3-x-x-1--1---|x3

After the first time, lead guitar plays this:

e|-------------------------|
B|----12-------------------|
G|-------12---------10b----|
D|-12-------12-------------|
A|-------------------------|
E|-------------------------|x4


[Verse]

e|-----------------------------|-------------------------------|------------3-----|
B|-----------------------------|-------------------------------|--------------3---|
G|-----------------------------|-------------------------------|----3-----5-------|
D|-3/5-5-5-5-x-x-5-x-x-5-x-x-3-|-3-3/5-5-5-5-x-x-5-x-x-5-x-x-3-|-3--3-----5-----5-|
A|-3/5-5-5-5-x-x-5-x-x-5-x-x-3-|-3-3/5-5-5-5-x-x-5-x-x-5-x-x-3-|-3--1-----3-------|
E|-1/3-3-3-3-x-x-3-x-x-3-x-x-1-|-1-1/3-3-3-3-x-x-3-x-x-3-x-x-1-|-1----------------|

e|-----------------------------|-------------------------------|-------------------------------|
B|-----------------------------|-------------------------------|-------------------------------|
G|-----------------------------|-------------------------------|-------------------------------|
D|-3/5-5-5-5-x-x-5-x-x-5-x-x-3-|-3-3/5-5-5-5-x-x-5-x-x-5-x-x-3-|-3-3/5-5-5-5-x-x-5-x-x-5-x-x-3-|
A|-3/5-5-5-5-x-x-5-x-x-5-x-x-3-|-3-3/5-5-5-5-x-x-5-x-x-5-x-x-3-|-3-3/5-5-5-5-x-x-5-x-x-5-x-x-3-|
E|-1/3-3-3-3-x-x-3-x-x-3-x-x-1-|-1-1/3-3-3-3-x-x-3-x-x-3-x-x-1-|-1-1/3-3-3-3-x-x-3-x-x-3-x-x-1-|

e|------------3-----|---------------------------------|
B|--------------3---|---------------------------------|
G|----3-----5-------|---------------------------------|
D|-3--3-----5-----5-|-3/5-5-5-5-x-x-5-x-x-5-x-x-3--3--|
A|-3--1-----3-------|-3/5-5-5-5-x-x-5-x-x-5-x-x-3--3--|
E|-1----------------|-1/3-3-3-3-x-x-3-x-x-3-x-x-1--1--|


[Chorus]

e|-------------|-----------------------------|-------------------------------|-------------|
B|-------------|-----------------------------|-------------------------------|-------------|
G|-7-----------|-3/5-5-5-5-x-x-5-x-x-5-x-x-3-|-3-3/5-5-5-5-x-x-5-x-x-5-x-x---|-7-----------|
D|-7-----3-----|-3/5-5-5-5-x-x-5-x-x-5-x-x-3-|-3-3/5-5-5-5-x-x-5-x-x-5-x-x---|-7-----3-----|
A|-5-----3-----|-1/3-3-3-3-x-x-3-x-x-3-x-x-1-|-1-1/3-3-3-3-x-x-3-x-x-3-x-x---|-5-----3-----|
E|-------1-----|-----------------------------|-------------------------------|-------1-----|

Lead guitar plays this twice during the chorus:

e|-7-------------|--7-----------|
B|------10p8h10--|------10\8\6--|
G|---------------|--------------|
D|---------------|--------------|
A|---------------|--------------|
E|---------------|--------------|


[Post-chorus]

e|-----------------------------|------------------------------------|
B|-----------------------------|------------------------------------|
G|-----------------------------|------------------------------------|
D|-3/5-5-5-5-x-x-5-x-x-5-x-x-3-|-3-3/5-5-5-5-x-x-5-x-x-5-x-x-3--3---|
A|-3/5-5-5-5-x-x-5-x-x-5-x-x-3-|-3-3/5-5-5-5-x-x-5-x-x-5-x-x-3--3---|
E|-1/3-3-3-3-x-x-3-x-x-3-x-x-1-|-1-1/3-3-3-3-x-x-3-x-x-3-x-x-1--1---|x2

While lead guitar plays this:

e|-------------------------|
B|----12-------------------|
G|-------12---------10b----|
D|-12-------12-------------|
A|-------------------------|
E|-------------------------|x4


[Verse 2]

e|-----------------------------|-------------------------------|------------3-----|
B|-----------------------------|-------------------------------|--------------3---|
G|-----------------------------|-------------------------------|----3-----5-------|
D|-3/5-5-5-5-x-x-5-x-x-5-x-x-3-|-3-3/5-5-5-5-x-x-5-x-x-5-x-x-3-|-3--3-----5-----5-|
A|-3/5-5-5-5-x-x-5-x-x-5-x-x-3-|-3-3/5-5-5-5-x-x-5-x-x-5-x-x-3-|-3--1-----3-------|
E|-1/3-3-3-3-x-x-3-x-x-3-x-x-1-|-1-1/3-3-3-3-x-x-3-x-x-3-x-x-1-|-1----------------|

e|-----------------------------|-------------------------------|-------------------------------|
B|-----------------------------|-------------------------------|-------------------------------|
G|-----------------------------|-------------------------------|-------------------------------|
D|-3/5-5-5-5-x-x-5-x-x-5-x-x-3-|-3-3/5-5-5-5-x-x-5-x-x-5-x-x-3-|-3-3/5-5-5-5-x-x-5-x-x-5-x-x-3-|
A|-3/5-5-5-5-x-x-5-x-x-5-x-x-3-|-3-3/5-5-5-5-x-x-5-x-x-5-x-x-3-|-3-3/5-5-5-5-x-x-5-x-x-5-x-x-3-|
E|-1/3-3-3-3-x-x-3-x-x-3-x-x-1-|-1-1/3-3-3-3-x-x-3-x-x-3-x-x-1-|-1-1/3-3-3-3-x-x-3-x-x-3-x-x-1-|

e|------------3-----|---------------------------------|
B|--------------3---|---------------------------------|
G|----3-----5-------|---------------------------------|
D|-3--3-----5-----5-|-3/5-5-5-5-x-x-5-x-x-5-x-x-3--3--|
A|-3--1-----3-------|-3/5-5-5-5-x-x-5-x-x-5-x-x-3--3--|
E|-1----------------|-1/3-3-3-3-x-x-3-x-x-3-x-x-1--1--|


[Chorus]

e|-------------|-----------------------------|-------------------------------|-------------|
B|-------------|-----------------------------|-------------------------------|-------------|
G|-7-----------|-3/5-5-5-5-x-x-5-x-x-5-x-x-3-|-3-3/5-5-5-5-x-x-5-x-x-5-x-x---|-7-----------|
D|-7-----3-----|-3/5-5-5-5-x-x-5-x-x-5-x-x-3-|-3-3/5-5-5-5-x-x-5-x-x-5-x-x---|-7-----3-----|
A|-5-----3-----|-1/3-3-3-3-x-x-3-x-x-3-x-x-1-|-1-1/3-3-3-3-x-x-3-x-x-3-x-x---|-5-----3-----|
E|-------1-----|-----------------------------|-------------------------------|-------1-----|

Lead guitar plays this twice during the chorus:

e|-7-------------|--7-----------|
B|------10p8h10--|------10\8\6--|
G|---------------|--------------|
D|---------------|--------------|
A|---------------|--------------|
E|---------------|--------------|


[Post-Chorus]

e|-----------------------------|------------------------------------|
B|-----------------------------|------------------------------------|
G|-----------------------------|------------------------------------|
D|-3/5-5-5-5-x-x-5-x-x-5-x-x-3-|-3-3/5-5-5-5-x-x-5-x-x-5-x-x-3--3---|
A|-3/5-5-5-5-x-x-5-x-x-5-x-x-3-|-3-3/5-5-5-5-x-x-5-x-x-5-x-x-3--3---|
E|-1/3-3-3-3-x-x-3-x-x-3-x-x-1-|-1-1/3-3-3-3-x-x-3-x-x-3-x-x-1--1---|

While lead guitar plays this:

e|-------------------------|
B|----12-------------------|
G|-------12---------10b----|
D|-12-------12-------------|
A|-------------------------|
E|-------------------------|x2


[Bridge]

e|---|
B|---|
G|-5-|
D|-5-|
A|-3-|
E|---|x32

e|--------------------------------|
B|--------------------------------|
G|--------------------------------|
D|-3/5-5-5-5-x-x-5-x-x-5-x-x-3--3-|
A|-3/5-5-5-5-x-x-5-x-x-5-x-x-3--3-|
E|-1/3-3-3-3-x-x-3-x-x-3-x-x-1--1-|

The lead guitar plays this little lick near the end of the line above:

e|-----------------------|
B|-----------------------|
G|-----------------------|
D|-12p10h12p10h12p10-10--|
A|-----------------------|
E|-----------------------|

Then:

e|-------------|-----------------------------|-------------------------------|-------------------------------|
B|-------------|-----------------------------|-------------------------------|-------------------------------|
G|-5-----3-----|-----------------------------|-------------------------------|-------------------------------|
D|-5-----3-----|-3/5-5-5-5-x-x-5-x-x-5-x-x-3-|-3-3/5-5-5-5-x-x-5-x-x-5-x-x-3-|-3-3/5-5-5-5-x-x-5-x-x-5-x-x-3-|
A|-3-x32-1-x16-|-3/5-5-5-5-x-x-5-x-x-5-x-x-3-|-3-3/5-5-5-5-x-x-5-x-x-5-x-x-3-|-3-3/5-5-5-5-x-x-5-x-x-5-x-x-3-|
E|-------------|-1/3-3-3-3-x-x-3-x-x-3-x-x-1-|-1-1/3-3-3-3-x-x-3-x-x-3-x-x-1-|-1-1/3-3-3-3-x-x-3-x-x-3-x-x-1-|

e|-------------------|
B|-------------------|
G|-------------------|
D|-3-3/5-5-5-5-x-x-5-|
A|-3-3/5-5-5-5-x-x-5-|
E|-1-1/3-3-3-3-x-x-3-|

This is played on lead while that intro/verse riff is played before the third verse kicks in:

e|-----------------------------------------------------|
B|-----------------------------------12----------------|
G|--------------------------------------12--------10b--|
D|-10/12------10--9-----7-7/9-----12-------12----------|
A|-----------------------------------------------------|
E|-----------------------------------------------------|


[Verse 3]

e|-----------------------------|-------------------------------|------------3-----|
B|-----------------------------|-------------------------------|--------------3---|
G|-----------------------------|-------------------------------|----3-----5-------|
D|-3/5-5-5-5-x-x-5-x-x-5-x-x-3-|-3-3/5-5-5-5-x-x-5-x-x-5-x-x-3-|-3--3-----5-----5-|
A|-3/5-5-5-5-x-x-5-x-x-5-x-x-3-|-3-3/5-5-5-5-x-x-5-x-x-5-x-x-3-|-3--1-----3-------|
E|-1/3-3-3-3-x-x-3-x-x-3-x-x-1-|-1-1/3-3-3-3-x-x-3-x-x-3-x-x-1-|-1----------------|

e|-----------------------------|-------------------------------|-------------------------------|
B|-----------------------------|-------------------------------|-------------------------------|
G|-----------------------------|-------------------------------|-------------------------------|
D|-3/5-5-5-5-x-x-5-x-x-5-x-x-3-|-3-3/5-5-5-5-x-x-5-x-x-5-x-x-3-|-3-3/5-5-5-5-x-x-5-x-x-5-x-x-3-|
A|-3/5-5-5-5-x-x-5-x-x-5-x-x-3-|-3-3/5-5-5-5-x-x-5-x-x-5-x-x-3-|-3-3/5-5-5-5-x-x-5-x-x-5-x-x-3-|
E|-1/3-3-3-3-x-x-3-x-x-3-x-x-1-|-1-1/3-3-3-3-x-x-3-x-x-3-x-x-1-|-1-1/3-3-3-3-x-x-3-x-x-3-x-x-1-|

e|------------3-----|---------------------------------|
B|--------------3---|---------------------------------|
G|----3-----5-------|---------------------------------|
D|-3--3-----5-----5-|-3/5-5-5-5-x-x-5-x-x-5-x-x-3--3--|
A|-3--1-----3-------|-3/5-5-5-5-x-x-5-x-x-5-x-x-3--3--|
E|-1----------------|-1/3-3-3-3-x-x-3-x-x-3-x-x-1--1--|


[Chorus]

e|-------------|-----------------------------|-------------------------------|-------------|
B|-------------|-----------------------------|-------------------------------|-------------|
G|-7-----------|-3/5-5-5-5-x-x-5-x-x-5-x-x-3-|-3-3/5-5-5-5-x-x-5-x-x-5-x-x---|-7-----------|
D|-7-----3-----|-3/5-5-5-5-x-x-5-x-x-5-x-x-3-|-3-3/5-5-5-5-x-x-5-x-x-5-x-x---|-7-----3-----|
A|-5-----3-----|-1/3-3-3-3-x-x-3-x-x-3-x-x-1-|-1-1/3-3-3-3-x-x-3-x-x-3-x-x---|-5-----3-----|
E|-------1-----|-----------------------------|-------------------------------|-------1-----|

Lead guitar plays this twice during the chorus:

e|-7-------------|--7-----------|
B|------10p8h10--|------10\8\6--|
G|---------------|--------------|
D|---------------|--------------|
A|---------------|--------------|
E|---------------|--------------|


[Outro]

e|-----------------------------------------------------------------|
B|-----------------------------------------------------------------|
G|-----------------------------------------------------------------|
D|-3/5-5-5-5-x-x-5-x-x-5-x-x-3--3-3/5-5-5-5-x-x-5-x-x-5-x-x-3--3---|
A|-3/5-5-5-5-x-x-5-x-x-5-x-x-3--3-3/5-5-5-5-x-x-5-x-x-5-x-x-3--3---|
E|-1/3-3-3-3-x-x-3-x-x-3-x-x-1--1-1/3-3-3-3-x-x-3-x-x-3-x-x-1--1---|x4

While lead guitar plays this:

e|-------------------------|
B|----12-------------------|
G|-------12---------10b----|
D|-12-------12-------------|
A|-------------------------|
E|-------------------------|x8


[End on]

e|---|
B|---|
G|-7-|
D|-7-|
A|-5-|
E|---|

And for the lead guitar end on:

e|-7---------------|
B|------10p8h10----|
G|-----------------|
D|-----------------|
A|-----------------|
E|-----------------|

************************************

| x   Dead note
| h   Hammer-on
| p   Pull-off
| b   Bend

************************************

            
            
Suggest correction
Creating personal tab
Creating personal tab
You can edit any tab online and save it as your Personal.

You can edit, replace or remove any tab part or add personal notes – all changes will be seen only by you.

Personal tabs can be accessed anytime from any device, even offline.
Learn more »
Give kudos to tab author, rate the tab!
1 2 3 4 5
comments
print report bad tab
guest
You may want to rate the tab now too:
select rating
Wanna post a correction for this tab? Suggest correction