Oops, an error
Loading. Please wait.

Paparazzi tab

version 1
version 1

Whole song

Interactive

1,208 views 3 this week
no commentswrite comment
1 2 3 4 5
3 more votes to show rating
add to favorites
×
Save as Personal and add changes to this tab that will be seen only by you. Learn more ›
×
You can save this tab as Personal to edit and correct it or add notes. All changes will be seen only by you. Learn more »
launch autoscroll
font size
0
reset
how to read this tab
guitar tuner
edit
Autoscroll
slow
fast
+/-
esc
set tempo
stop
Author
Difficulty
Title: Paparazzi

Artist: Sandra Bae

Arranged by: Sandra Bae

Tabbed by: Ryan R. Gonzales

Location: Rosario, Batangas - Philippines

Tuning: C G D# A# F C (Two steps down)


               ^                                                 
      H        H                                                 
C ||-----------3--------|-------------------|-------------------|
G ||-----------3--------|-------------------|-------------------|
D#||-----------0--------|-------------------|-------------------|
A#||-----------2--------|-------------------|-------------------|
F ||-----------3--------|-------------------|-------------------|
C ||-----------0--------|-------------------|-------------------|


                                           E   E    E    Q       E    E    E   
-------------------|-------------------|--------------------------------------|
-------------------|-------------------|--12--12--(12)---------------(0)------|
-------------------|-------------------|-----------(0)---------------(0)------|
-------------------|-------------------|----------(14)--14br~-------(14)--14--|
-------------------|-------------------|----------------14br~-----------------|
-------------------|-------------------|---0--------x----0-------0----x-------|


   E   E    E    Q       E    E    E      E   E    E    Q       E    E    E   
--------------------------------------|--------------------------------------|
--12--12--(12)---------------(0)------|--12--12--(12)---------------(0)------|
-----------(0)---------------(0)------|-----------(0)---------------(0)------|
----------(14)--14br~-------(14)--14--|----------(14)--14br~-------(14)--14--|
----------------14br------------------|----------------14br------------------|
---0--------x----0-------0----x-------|---0--------x----0-------0----x-------|


                                                       v            
   E   E    E    E  E   E    E   E     Q     E   Q     E    E   E   
---------------------------------3--|--2-----3---0-----0-----------|
--12--13---15---13-----12---(0)-----|--0----(0)--0-----0---(0)-----|
-----------(0)--------------(0)-----|--0----(0)--0-----0---(0)-----|
----------(14)-------------(14)-----|-------(2)-------(2)--(2)-----|
------------------------------------|--3-----x---3----------x---0--|
---0--------x-------0--------x------|------------------------------|


                                            v      v            
  Q     E   E  Q     E   E     E.  S   E    Q      E    E   E   
--7-----3------2-----0------|--2---2h--3----0------------------|
-------(0)----------(0)-----|---------(0)--(0)----(0)--(0)-----|
-------(0)----------(0)-----|---------(0)--(0)----(0)--(0)-----|
-------(0)----------(0)-----|---------------------(2)--(2)-----|
--0-----x---0--0-----x---0--|----------x----------(2)---x------|
----------------------------|--0----------------------------0--|


  Q    E  E  S  S  Q.         S  S E   E   Q    E   E   E   
---------------------------|--5s-7-7---7---0--------0---0--|
---------------------------|----------(0)----------(0)-----|
-------------------9~------|----------(0)----------(0)-----|
-------2-----2s-8~---------|----------(0)----------(0)-----|
---------------------------|-------------------------------|
--0-------0----------------|--0--------x---0----0---x------|


  E  E   E   Q    E   E   E     E  E   E   Q    E   E   E   
--7--7---7---0--------0---0--|--7--7--(7)--0--------0---0--|
--------(0)----------(0)-----|--------(0)----------(0)-----|
--------(0)----------(0)-----|--------(0)----------(0)-----|
--------(0)----------(0)-----|--------(0)----------(0)-----|
-----------------------------|-----------------------------|
--0------x---0----0---x------|--0------x---0----0---x------|


                                                   v            
  E  E   S   S E  E  E   E   E     Q     E   Q     E    E   E   
--7--8---8s-10-8-----7-------3--|--2-----3---0-----0-----------|
--------(0)-------------(0)-----|--0----(0)--0-----0---(0)-----|
--------(0)-------------(0)-----|--0----(0)--0-----0---(0)-----|
--------(0)-------------(0)-----|-------(2)-------(2)--(2)-----|
--------------------------------|--3-----x---3----------x---0--|
--0------x--------0------x------|------------------------------|


                                            v      v              
  Q     E   E  Q     E   E     E.  S   E    Q      E    E   S  S  
--7-----3------2-----0------|--2---2h--3----0---------------5s-7-|
-------(0)----------(0)-----|---------(0)--(0)----(0)--(0)-------|
-------(0)----------(0)-----|---------(0)--(0)----(0)--(0)-------|
-------(0)----------(0)-----|---------------------(2)--(2)-------|
--0-----x---0--0-----x---0--|--0-------x----------(2)---x--------|
----------------------------|------------------------------------|


  E  E  E   E  Q      E   E     E  E    E   E  E  E    E    E   
--7--5--7--10--7~------------|--8--8--------8--8------10-------|
---------------------(0)-----|--8--8---(8)--8--8------(8)--12--|
---------------------(0)-----|--9--9---(9)--9--9------(9)--12--|
---------------------(0)-----|--------(10)-----------(10)------|
----------------------x---0--|--------(10)-----------(10)------|
-----------------------------|--8-------x---8-----8----x-------|


   E   E    E    E   E   E     E    E      E  E   E   E  E  E   E   E   
-----------------------------------12s--|--8--8----------5--7----------|
------12--(12)--12--12---Lh---13--------|--------(0)-----5--5--(5)-----|
------12--(12)--12--12-------(12)-------|--------(0)-----5--5--(5)-----|
----------(12)---------------(12)-------|--------(0)-----------(5)-----|
--10--------x---10------10-----x--------|--0------x---0---------x---0--|
----------------------------------------|------------------------------|


                        v                                               
   E   E    E    Q      E     E   E     E  E    E   E  E  E    E    E   
----------------12------8-----8------|--8--8--------8--8------10-------|
--10--12--(10)---------10----10------|--8--8---(8)--8--8------(8)--12--|
--10------(10)---------10---(10)-----|--9--9---(9)--9--9------(9)--12--|
--10------(10)--------(10)--(10)-----|--------(10)-----------(10)------|
---8--------x----8-----(8)----x---0--|--------(10)-----------(10)------|
-------------------------------------|--8-------x---8-----8----x-------|


   E   E    E    E   E   E     E    E      E  E   E   E  E  E   E   E   
-----------------------------------12s--|--8--8----------5--7----------|
------12--(12)--12--12---Lh---13--------|--------(0)-----5--5--(5)-----|
------12--(12)--12--12-------(12)-------|--------(0)-----5--5--(5)-----|
----------(12)---------------(12)-------|--------(0)-----------(5)-----|
--10--------x---10------10-----x--------|--0------x---0---------x---0--|
----------------------------------------|------------------------------|


                        v                                            
   E   E    E    Q      E     E   E     Q     E   E  E  E    E   E   
----------------12------8-----8------|--3-----1------0--------------|
--10--12--(10)---------10----10------|--1-----0------3--1h--(3)--0--|
--10------(10)---------10---(10)-----|--0-----0------0--0---(0)--0--|
--10------(10)--------(10)--(10)-----|-------(2)------------(2)-----|
---8--------x----8-----(8)----x---0--|--3-----x---3--3-------x------|
-------------------------------------|------------------------------|


  Q     E   E  E  E   E   E     Q     E   E  E  E   E   E   
-----------------------------|--3-----1------0-------------|
-------(0)-------------------|--1-----0------3--1--(1)-----|
-------(0)--0--0--0---0---0--|--0-----0------0--0--(0)--2--|
-------(0)-----------(0)-----|-------(2)-----------(2)--3--|
-------(2)------------x------|--0-----x---0--0------x------|
--3-----x------3-------------|-----------------------------|


  Q     E   E  E    E   E   E     E  E   E   E  E  E   E   E   
-------------------------------|------------------------------|
-------(1)-------------(1)-----|--1--1--(1)--1--1------3---0--|
-------(2)--------0g2--(2)--0--|--0--0--(0)--0--0-----(0)--0--|
-------(3)-------------(3)-----|--------(2)-----------(2)-----|
------------------------x------|--3------x---3-----3---x------|
--1-----x---1--1---------------|---------------------------3--|


  E  E   E   E  E  E   E   E     E  E   E   E  E  E   E   E   
---------------------------0--|------------------------------|
--L--0--(0)--0--0------0------|-----1--(1)--------0--(0)-----|
--L--0--(0)--0--0-----(0)-----|--------(2)-----2-----(2)-----|
--------(0)-----------(0)-----|--------(2)-----------(2)-----|
--------(2)-----------(2)-----|--0------x---0--0------x------|
--L------x---3-----3---x------|---------------------------0--|


  E  E   E   Q    E   E   E   
-------------0---------------|
-----0--(0)-------1--(0)-----|
--2-----(2)----------(2)-----|
--------(3)----------(3)-----|
-----------------------------|
--1------x---1--------x---0--|


     NH       NH     NH   NH   NH    NH     NH     NH  
     Q        E      S    S    E     E      E      E   
------------------------------------------------------|
----------<>(12)------------------------<>(12)--------|
----------<>(12)------------------------<>(12)--------|
----------<>(12)------------------------<>(12)--------|
------------------------------------------------------|
--<>12--------x---<>12-<>12-<>12--<>12------x---<>12--|


     NH       NH     NH   NH   NH    NH     NH     NH  
     Q        E      S    S    E     E      E      E   
------------------------------------------------------|
----------<>(12)------------------------<>(12)--------|
----------<>(12)------------------------<>(12)--------|
----------<>(12)------------------------<>(12)--------|
------------------------------------------------------|
--<>12--------x---<>12-<>12-<>12--<>12------x---<>12--|


     NH       NH     NH   NH   NH    NH     NH     NH  
     Q        E      S    S    E     E      E      E   
------------------------------------------------------|
----------<>(12)------------------------<>(12)--------|
----------<>(12)------------------------<>(12)--------|
----------<>(12)------------------------<>(12)--------|
------------------------------------------------------|
--<>12--------x---<>12-<>12-<>12--<>12------x---<>12--|


     NH       NH     NH   NH   NH    NH     NH      
     Q        E      S    S    E     E      E   E   
---------------------------------------------------|
----------<>(12)------------------------<>(12)-----|
----------<>(12)------------------------<>(12)-----|
----------<>(12)------------------------<>(12)-----|
---------------------------------------------------|
--<>12--------x---<>12-<>12-<>12--<>12------x---0--|


                      NH                                NH          
  E  E   E   S S E    E   E   E     E  E   E   S S E    E   E   E   
--7--7---7---0------------0---0--|--7--7---7---0------------0---0--|
--------(0)--------------(0)-----|--------(0)--------------(0)-----|
--------(0)--------------(0)-----|--------(0)--------------(0)-----|
--------(0)--------------(0)-----|--------(0)--------------(0)-----|
---------------------------------|---------------------------------|
--0------x---0-0-0--<>0---x------|--0------x---0-0-0--<>0---x------|


  E  E   E   Q    E   E   E     E  E   S   S E  E  E   E   E   
--7--7--(7)--0--------0---0--|--7--8---8s-10-8-----7-------3--|
--------(0)----------(0)-----|--------(0)-------------(0)-----|
--------(0)----------(0)-----|--------(0)-------------(0)-----|
--------(0)----------(0)-----|--------(0)-------------(0)-----|
-----------------------------|--------------------------------|
--0------x---0----0---x------|--0------x--------0------x------|


                  v                                         
  Q     E   Q     E    E   E     Q     E   E  Q     E   E   
--2-----3---0-----0-----------|--7-----3------2-----0------|
--0----(0)--0-----0---(0)-----|-------(0)----------(0)-----|
--0----(0)--0-----0---(0)-----|-------(0)----------(0)-----|
-------(2)-------(2)--(2)-----|-------(0)----------(0)-----|
--3-----x---3----------x---0--|--0-----x---0--0-----x---0--|
------------------------------|----------------------------|


               v      v                                      
  E.  S   E    Q      E    E   E     E  E  E  E  E  E  Q     
--2---2h--3----0------------------|-------------------------|
---------(0)--(0)----(0)--(0)-----|-------------------------|
---------(0)--(0)----(0)--(0)-----|-------------------------|
---------------------(2)--(2)-----|-------------------------|
----------x----------(2)---x------|-------------------------|
--0----------------------------0--|--0--x--x--0--0--x--0----|


                      NH                                NH          
  E  E   E   S S E    E   E   E     E  E   E   S S E    E   E   E   
--7--7---7---0------------0---0--|--7--7---7---0------------0---0--|
--------(0)--------------(0)-----|--------(0)--------------(0)-----|
--------(0)--------------(0)-----|--------(0)--------------(0)-----|
--------(0)--------------(0)-----|--------(0)--------------(0)-----|
---------------------------------|---------------------------------|
--0------x---0-0-0--<>0---x------|--0------x---0-0-0--<>0---x------|


  E  E   E   Q    E   E   E     E  E   S   S E  E  E   E   E   
--7--7--(7)--0--------0---0--|--7--8---8s-10-8-----7-------3--|
--------(0)----------(0)-----|--------(0)-------------(0)-----|
--------(0)----------(0)-----|--------(0)-------------(0)-----|
--------(0)----------(0)-----|--------(0)-------------(0)-----|
-----------------------------|--------------------------------|
--0------x---0----0---x------|--0------x--------0------x------|


                  v                                         
  Q     E   Q     E    E   E     Q     E   E  Q     E   E   
--2-----3---0-----0-----------|--7-----3------2-----0------|
--0----(0)--0-----0---(0)-----|-------(0)----------(0)-----|
--0----(0)--0-----0---(0)-----|-------(0)----------(0)-----|
-------(2)-------(2)--(2)-----|-------(0)----------(0)-----|
--3-----x---3----------x---0--|--0-----x---0--0-----x---0--|
------------------------------|----------------------------|


               v      v                                            
  E.  S   E    Q      E    E   S  S    E  E  E   E  Q      E   E   
--2---2h--3----0---------------5s-7-|--7--5--7--10--7~------------|
---------(0)--(0)----(0)--(0)-------|---------------------(0)-----|
---------(0)--(0)----(0)--(0)-------|---------------------(0)-----|
---------------------(2)--(2)-------|---------------------(0)-----|
--0-------x----------(2)---x--------|--0-------------------x---0--|
------------------------------------|-----------------------------|


  E  E    E   E  E  E    E    E      E   E    E    E   E   E     E    E    
--8--8--------8--8------10-------|-----------------------------------12s--|
--8--8---(8)--8--8------(8)--12--|------12--(12)--12--12---Lh---13--------|
--9--9---(9)--9--9------(9)--12--|------12--(12)--12--12-------(12)-------|
--------(10)-----------(10)------|----------(12)---------------(12)-------|
--------(10)-----------(10)------|--10--------x---10------10-----x--------|
--8-------x---8-----8----x-------|----------------------------------------|


                                                       v             
  E  E   E   E  E  E   E   E      E   E    E    Q      E     E   E   
--8--8----------5--7----------|----------------12------8-----8------|
--------(0)-----5--5--(5)-----|--10--12--(10)---------10----10------|
--------(0)-----5--5--(5)-----|--10------(10)---------10---(10)-----|
--------(0)-----------(5)-----|--10------(10)--------(10)--(10)-----|
--0------x---0---------x---0--|---8--------x----8-----(8)----x---0--|
------------------------------|-------------------------------------|


  E  E    E   E  E  E    E    E      E   E    E    E   E   E     E    E    
--8--8--------8--8------10-------|-----------------------------------12s--|
--8--8---(8)--8--8------(8)--12--|------12--(12)--12--12---Lh---13--------|
--9--9---(9)--9--9------(9)--12--|------12--(12)--12--12-------(12)-------|
--------(10)-----------(10)------|----------(12)---------------(12)-------|
--------(10)-----------(10)------|--10--------x---10------10-----x--------|
--8-------x---8-----8----x-------|----------------------------------------|


                                                       v             
  E  E   E   E  E  E   E   E      E   E    E    Q      E     E   E   
--8--8----------5--7----------|----------------12------8-----8------|
--------(0)-----5--5--(5)-----|--10--12--(10)---------10----10------|
--------(0)-----5--5--(5)-----|--10------(10)---------10---(10)-----|
--------(0)-----------(5)-----|--10------(10)--------(10)--(10)-----|
--0------x---0---------x---0--|---8--------x----8-----(8)----x---0--|
------------------------------|-------------------------------------|


  Q     E   E  E  E    E   E     Q     E   E  E  E   E   E   
--3-----1------0--------------|-----------------------------|
--1-----0------3--1h--(3)--0--|-------(0)-------------------|
--0-----0------0--0---(0)--0--|-------(0)--0--0--0---0---0--|
-------(2)------------(2)-----|-------(0)-----------(0)-----|
--3-----x---3--3-------x------|-------(2)------------x------|
------------------------------|--3-----x------3-------------|


  Q     E   E  E  E   E   E     Q     E   E  E    E   S  S E   
--3-----1------0-------------|--------------------------------|
--1-----0------3--1--(1)-----|-------(1)----------------------|
--0-----0------0--0--(0)--2--|-------(2)--------0g2s--3s-2-0--|
-------(2)-----------(2)--3--|-------(3)----------------------|
--0-----x---0--0------x------|--------------------------------|
-----------------------------|--1-----x---1--1----------------|


  E  E   E   E  E  E   E   E     E  E   E   E  E  E   E   E   
------------------------------|-----------------------0---0--|
--1--1--(1)--1--1------3---0--|-----0--(0)--0--0-----(0)-----|
--0--0--(0)--0--0-----(0)--0--|-----0--(0)--0--0-----(0)-----|
--2--2--(2)--2--2-----(2)-----|--------(0)-----------(0)-----|
--3------x---3-----3---x------|--------(2)-----------(2)-----|
------------------------------|--3------x---3-----3---x------|


  E  E   E   E  E  E   E   E     E  E   E   Q    E   E   E   
------------------------------|-------------0---------------|
-----1--(1)--------0--(0)-----|-----0--(0)-------1--(0)-----|
--------(2)-----2-----(2)-----|--2-----(2)----------(2)-----|
--------(2)-----2-----(2)-----|--3-----(3)----------(3)-----|
--0------x---0--0------x------|--------------------------0--|
---------------------------0--|--1------x---1--------x------|


  Q     E   E  E  E   E   E     E  E   E   E  E  E   E   E   
--7-------------------7------|------------------------------|
--8----(8)------------8------|--------(8)-----7--8---8------|
--9----(9)--9-----9---9---9--|-----9--(9)--9--------(9)-----|
-------(9)--9-----9--(9)--9--|-----9--(9)--9--------(9)-----|
--7-----x------7------x------|--7------x------7------x---7--|
-----------------------------|------------------------------|


  Q     E   E  E  E   E   E     E  E   E   E  E  E   E   E   
--7-------------------7------|------------------------------|
--8----(8)------------8------|--------(8)-----7--8---8------|
--9----(9)--9-----9---9---9--|-----9--(9)--9--------(9)-----|
-------(9)--9-----9--(9)--9--|-----9--(9)--9--------(9)-----|
--7-----x------7------x------|--7------x------7------x---7--|
-----------------------------|------------------------------|


                                                 v            
  E  E   E   E  Q     E   E     E  E   E   Q     E    E   E   
---------7-------------------|-------------------------------|
--------(8)-----------8------|--------(8)-------(8)--(8)-----|
--------(9)-----9----(9)-----|--7--9--(9)--9----(9)--(9)-----|
--------(9)-----9----(9)-----|--9--9--(9)--9----(9)--(9)-----|
--7------x---7--7-----x---7--|--7------x---7----(7)---x---7--|
-----------------------------|-------------------------------|


  Q     E   E  E  E  E  E      E   E   E   E   Q.      E   
--------7s--2--0--0--0--0--|--12s--9--12s--9--12s------9--|
-------(0)-----------------|------------------------------|
-------(0)-----------------|------------------------------|
---------------------------|------------------------------|
--0-----x------0-----------|---0-------0-------0----------|
---------------------------|------------------------------|


   ^                                                              
   E  E  E  E  E  E   E   E      E   E   E   E   E   E   E   E    
---8--8--8--8-----8--10------|------------------------------12s--|
---8--8--8--8-----8------12--|------12--12--12--12------13-------|
---9-----------9---------12--|------12--12--12--12---------------|
--10---------------------12--|------12--12--12------12-----------|
--10---------------------10--|--10--------------10---------------|
---8-------------------------|-----------------------------------|


  E  Q    E  E.  E.  E      E   E   E   Q    E   E  E   
--8--8-------5---7------|--------------12----8---------|
------------------------|--10--12----------------------|
----------0----------0--|--10-----------------------0--|
------------------------|--10------10-----------10-----|
--0---------------------|---8--------------------------|
------------------------|------------------------------|


  E  E  E  E  E  E   E   E     E   E   E   E   E   E   E   E    
--8--8--8--8--8-----10------|-----------------------------12s--|
--8--8--8--8--8--8------12--|--L--12--12--12--12------13-------|
--9--------9------------12--|--L--12--12--12--12---------------|
----------------------------|-----12--12--12-------------------|
------------------------10--|--L------------------10-----------|
--8-------------------------|----------------------------------|


                                                v            
  E  Q    E  E.  E.  E      E   E    E    Q     E    E   E   
--8--8-------5---7------|----------------12-----8----8------|
------------------------|--10--12--(10)--------10---10------|
----------0----------0--|--10------(10)--------10--(10)-----|
------------------------|--10------(10)------------(10)-----|
--0---------------------|---8--------x----8----------x---0--|
------------------------|-----------------------------------|


                              NH                                
   Q     E   E   E   E  E     E      Q    E  E   E  E   E   E   
--15----13------12---------------|-----------------------------|
--------------------15-----<>12--|-----------------------------|
---------------------------------|-----------0---0--0--(0)--0--|
---------------------------------|-----------------------------|
--15--------15----------x--------|-----------------------------|
---------------------------------|--15----x-----15------x------|


                    NH                ^            v     ^     v           
   Q      E   E     E   E  E   E      Q      E     E     E     E    E  E   
--15-----13------<>12-------------|---------------------------------------|
---------13------------15---------|---------------------------------------|
---------13-------------------14--|--14-----14---(14)--(14)---14---14-----|
--------(14)----------------------|--15----(15)--(15)--(15)--(15)--15-----|
---0------x---0-----0------x------|--13----(13)--(13)--(13)--(13)--13-----|
----------------------------------|--13------x----13----13----13----x-----|


  E  E   E   E  E  E   E   E     E  E   E   E  E  E   E   E   
------------------------------|---------------------------0--|
--1--1--(1)--1--1------3---0--|-----0--(0)--0--0------0------|
--0--0--(0)--0--0-----(0)--0--|-----0--(0)--0--0-----(0)-----|
--------(2)-----------(2)-----|--------(0)-----------(0)-----|
--3------x---3-----3---x------|--------(2)-----------(2)-----|
------------------------------|--3------x---3-----3---x------|


  E  E   E   E  E  E   E   E     E  E   E   Q    E   E   E   
------------------------------|-------------0---------------|
-----1--(1)--------0--(0)-----|-----0--(0)-------1--(0)-----|
-----2--(2)-----2-----(2)-----|--2-----(2)----------(2)-----|
--------(2)-----2-----(2)-----|--3-----(3)----------(3)-----|
--0------x---0--0------x------|-----------------------------|
---------------------------0--|--1------x---1--------x---0--|


  Q    E  E  Q    E  E     E  E   E   Q    E   E   E     Q    E  E  Q    E  E   
------------------------|-------------0---------------|------------------------|
------------------------|-----0--(0)-------1--(0)-----|------------------------|
------------------------|--2-----(2)----------(2)-----|------------------------|
------------------------|--------(3)----------(3)-----|------------------------|
------------------------|-----------------------------|------------------------|
--0----x--0--0----x--0--|--1------x---1--------x---0--|--0----x--0--0----x--0--|


  E  E   E   Q    E   E   E     Q    E  S S H          
-------------0---------------|-----------------------||
-----0--(0)-------1--(0)-----|-----------------------||
--2-----(2)----------(2)-----|-----------------------||
--------(3)----------(3)-----|-----------------------||
-----------------------------|-----------------------||
--1------x---1--------x---0--|--0----x--0-0-0--------||



Duration Legend
---------------
W - whole
H - half
Q - quarter
E - 8th
S - 16th
T - 32nd
X - 64th
. - note dotted
|-n-|  - n-tuplets


Tablature Legend
----------------
L   - tied note
x   - dead note
g   - grace note
(n) - ghost note
NH  - natural harmonic
h   - hammer on
p   - pull off
br  - bendRelease
s   - legato slide
~   - vibrato
^   - brush up
v   - brush down



echo "Hello World!";

Play until your fingers bleed!
Suggest correction
Creating personal tab
Creating personal tab
You can edit any tab online and save it as your Personal.

You can edit, replace or remove any tab part or add personal notes – all changes will be seen only by you.

Personal tabs can be accessed anytime from any device, even offline.
Learn more »
Give kudos to tab author, rate the tab!
1 2 3 4 5
comments
print report bad tab
guest
You may want to rate the tab now too:
select rating
Wanna post a correction for this tab? Suggest correction