Oops, an error
Loading. Please wait.

Tu Mi Cielo Y Mi Alma Chords

version 1
version 1

Whole song

64 views 1 this week
no commentswrite comment
1 2 3 4 5
3 more votes to show rating
add to favorites
launch autoscroll
font size
0
reset
transpose
0
reset
simplify chords
display chords
guitar tuner
×
Best way to learn
"Tu Mi Cielo Y Mi Alma"
Autoscroll
slow
fast
+/-
esc
set tempo
stop
Titulo:            Tu mi cielo y mi alma
Autor:            Sandro Giacobe
Interprete:      Sandro Giacobe

Acordes y tab:            Claudio Guzmán Solís


Introducción: (Esta es la parte de teclado que se toca en la introducción 

            y también en los coros)

     G        D/F#     Em      Em/D   C       C/B     A     D/F# G           D   C   
E------------------------------0------0-------0-------0-----0----2--2--2--2--2-----------------
B-------3-------3------0------0--0---1--1----1--1----1--1--1--1--3--3--3--3--3-----1---1---1--
G------0--0----2--2---0--0---0--0---0--0----0--0----2--2--2--2---2--2--2--2--2----0---0---2----
D-----0--0----0--0---2--2--0-------------------------------------0--0--0--0--0---2---0---2----
A----------------------------------3------2-------0--------------0--0--0--0-----3---2---0-----
E---3-------2------0-------------------------------------3-------2--2--2--2--------------------
 

   G           D   C   C/B A   G  C D  G                                                                
E--2--2--2--2--2---------------3--0-2--3--
B--3--3--3--3--3-----1---1---1-0--1-3--0--
G--2--2--2--2--2----0---0---2--0--0-2--0--
D--0--0--0--0--0---2---0---2---0--2-0--0--
A--0--0--0--0-----3---2---0----2--3----2--
E--2--2--2--2------------------3-------3--


                  Am       D
Haz llegado en silencio

                Bm     Em7
no te atreves a hablar
 
                 Am        D7
pero leo en tus ojos
 
                 Bm       E 
que ya no eres igual

                  Am       D
que pasó entre nosotros
 
                  Bm       Em7
que nos hizo cambiar

               Am          D7
el amor poco a poco 
 
                 Em        D
nos separa la ciudad       haaaaa haa


(Intro para los coros)

Coro:

tu haz dejado de ser tu

cuando estas cerca de mi 

tu mi cielo y mi alma 

yo he dejado de ser yo 

cuando estoy cerca de ti

tu micielo y mi alma 


si tuviera un segunda 

para echar marcha atrás 

cuantas cosas no haría

si supiera el final

es inútil las cosas 

ya no pueden cambiar


tu haz dejado de ser tu

cuando estas cerca de mi 

tu mi cielo y mi alma 

yo he dejado de ser yo 

cuando estoy cerca de ti

tu mi cielo y mi alma


tu haz dejado de ser tu....
Suggest correction
Give kudos to tab author, rate the tab!
1 2 3 4 5
comments
print report bad tab
guest
You may want to rate the tab now too:
select rating
Wanna post a correction for this tab? Suggest correction