Oops, an error
Loading. Please wait.

Ang Pagbabalik Chords

799 views 1 this week
no commentswrite comment
1 2 3 4 5
3 more votes to show rating
add to favorites
launch autoscroll
font size
0
reset
transpose
0
reset
display chords
guitar tuner
Autoscroll
slow
fast
+/-
esc
set tempo
stop
Help us to improve Ultimate-Guitar.com Take our survey!
×
Artist: Sandwich
Title: Ang Pagbabalik
Album:  Mark the Spot

Intro:

e|-----------------------------------|
B|-----------------------------------|
G|-----------------------------------|
D|------2or3-------------------------|
A|---2-------2--4--------------------|
E|-2---------------------------------|

Ladies and Gentlemen...

e|-----------------------------------|
B|-----------------------------------|
G|-----------------------------------|
D|-----------------------------------|
A|-7--2--4---------------------------|
E|----------2----4or5----------------|

(2tyms nyong ggwn yn)timingan ln.

Chorus:(Drumbeat lng)
Kamiy nagbabalik sabik na sabik
At dadalhin sa inyong lahat ang pinakamabagsik...
Kamiy nagbabalik sabik na sabik
Malapot pa sa kumunoy...


Verse:
F#              A                   
Dumapo sa isang iglap ng iyong ngiti
Bm                     F#   
Dagsa nang sayawan ngayong gabi
F#                          A
Pwede ang magkalas buto o lakad parang itik
Bm                     F#
Nandito na kami handang magsilbi
F#                         A
Walang iba nagiisa sa usong aming hatid
Bm                     F#
Halo-halong eksena bawal ang tumunganga
F#                   A
Asan ka pa? Dito ka na! Lumusob mga kapatid
Bm                                    F#
Eto ang aming hiling eto Ang Pagbabalik


Chorus:(Drumbeat lng)
Kamiy nagbabalik sabik na sabik
At dadalhin sa inyong lahat ang pinakamabagsik...
Kamiy nagbabalik sabik na sabik
Malapot pa sa kumunoy at kay NARDONG PUTIK...

GO!....
e|-----------------------------------|
B|-----------------------------------|
G|-----------------------------------|
D|------2or3-------------------------|
A|---2-------2--4--------------------|
E|-2---------------------------------|

e|-----------------------------------|
B|-----------------------------------|
G|-----------------------------------|
D|-----------------------------------|
A|-7--2--4---------------------------|
E|----------2----4or5----------------|

(2tymz p dn!)
F#                      A
Walang kasing halaga mga sari-saring bala
Bm                             F#
Kapit na tuko nandito na at may bagong baon
F#                A
Sino ang may sabi?sino ang matindi?
Bm                          F#
Sino daw?Sino daw??Sino daw???...
F#                      
Walang panahon sumabay na lang
A                                        
Walang panahon sumbay ka na
Bm                            F#
Sumabay ka na saming padyak gumalaw
F#               
Eto na nga andyan na nga
A
sumugod at magmadali
Bm
Ibibigay ang hiling 
           F#    
Eto ANG PAGBABALIK!!!


Ewn ko kung tama!!!hehehe ktunog siguro!?ei pki tingnn dn ung Dehado by hilera!!!tnx...

...128...
Suggest correction
Give kudos to tab author, rate the tab!
1 2 3 4 5
comments
print report bad tab
guest
You may want to rate the tab now too:
select rating
Wanna post a correction for this tab? Suggest correction