Oops, an error
Loading. Please wait.

Butterfly Carnival Bass Tab

1,519 views 1 this week
1 commentread comment
1 2 3 4 5
2 more votes to show rating
add to favorites
launch autoscroll
font size
0
reset
guitar tuner
Autoscroll
slow
fast
+/-
esc
set tempo
stop
Help us to improve Ultimate-Guitar.com Take our survey!
×
Author
Difficulty
novice
Legend for this song:
/ - Increasing Slide
\ - Decreasing Slide

Intro 1
No Bass

Intro 2 (00:25)
G|---------------------------------------------------------|
D|---------------------------7------7------7---------------|
A|-------7------7----7--5555---5555---5555-----------------|
E|--5555---5555---55---------------------------------------|

G|---------------------------------------------------------|
D|---------------------------7------7------7---------------|
A|-------7------7----7--5555---5555---5555-----------------|
E|--5555---5555---55---------------------------------------|

Verse 1

G|----------------------------------------------------------------------|
D|----------------------------------------------------------------------|
A|--3-3-3-3-3-3-3-3-5-5-5-5-5-5-5-5-7-7-7-7-7-7-7-7---------------------|
E|--------------------------------------------------5-5-5-5-5-5-5-5-----|

G|----------------------------------------------------------------------|
D|----------------------------------------------------------------------|
A|--3-3-3-3-3-3-3-3-5-5-5-5-5-5-5-5-7-7-7-7-7-7-7-7---------------------|
E|--------------------------------------------------5-5-5-5-5-5-5-5-----|

Chorus

G|----------------------------------------------------------------------|
D|----------------------------------------------------------------------|
A|--7-7-7-7-7-7-7-7/9-9-9-9-9-9-9-9\7-7-7-7-7-7-7-7\5-5-5-5-5-5-5-5-----|
E|----------------------------------------------------------------------|

G|----------------------------------------------------------------------|
D|----------------------------------------------------------------------|
A|--7-7-7-7-7-7-7-7/9-9-9-9-9-9-9-9\7-7-7-7-7-7-7-7\5-5-5-5-5-5-5-5-----|
E|----------------------------------------------------------------------|

Repeat Intro 2

Verse 2 

G|----------------------------------------------------------------------|
D|----------------------------------------------------------------------|
A|--3-3-3-3-3-3-3-3-5-5-5-5-5-5-5-5-7-7-7-7-7-7-7-7---------------------|
E|--------------------------------------------------5-5-5-5-5-5-5-5-----|

G|----------------------------------------------------------------------|
D|----------------------------------------------------------------------|
A|--3-3-3-3-3-3-3-3-5-5-5-5-5-5-5-5-7-7-7-7-7-7-7-7---------------------|
E|--------------------------------------------------5-5-5-5-5-5-5-5-----|

Repeat Chorus
Bass Stops
Enters at (2:56) Repeat Intro 2
Repeat Intro 2

G|------|
D|------|
A|------|
E|--0---|

end
-------------------------

by: reborn/rebornKeZ/z3k
Suggest correction
Give kudos to tab author, rate the tab!
1 2 3 4 5
comments
print report bad tab
1 comment total.
0 reply
reborn 73 Jan 16, 2006 05:47 AM

Sa intro 2 ganito dapat nasobrahan kasi

G|---------------------------------------------------------|
D|---------------------------7------7----7-----------------|
A|-------7------7----7--5555---5555---55-------------------|
E|--5555---5555---55---------------------------------------|

G|---------------------------------------------------------|
D|---------------------------7------7----7-----------------|
A|-------7------7----7--5555---5555---55-------------------|
E|--5555---5555---55---------------------------------------|

-reborn/rebornKeZ/z3K

guest
You may want to rate the tab now too:
select rating
Wanna post a correction for this tab? Suggest correction