Oops, an error
Loading. Please wait.

Lakad Tab

version 1
version 1

Whole song

2,676 views 4 this week
no commentswrite comment
1 2 3 4 5
please rate
add to favorites
launch autoscroll
font size
0
reset
how to read this tab
guitar tuner
Tab Pro tools
  • play this tab
  • loop segment
  • change instrument
  • show fretboard
  • metronome
×
Best way to learn
"Lakad"
Autoscroll
slow
fast
+/-
esc
set tempo
stop
Contributor
Difficulty
intermediate
Song: "Lakad" 
Band: Sandwich

Tabber: Aldrian Nachor - "BamvooProductions"

Reminders:
*Walang mga lead parts to.. guitar 1 lang ung tinab ko. ^_^ hehe
*Pakinggan niyo mabuti ung song para sa timing.
*Nakadistort lahat.
*90% sure. hehe XD


****************************************************************************
Intro:
Main Riff:
   
e--------------------|----------------------------|
B--------------------|----------------------------|
G--77-99------77-55--|--77-99---------------------|
D--77-99--7-7-77-55--|--77-99--7-~-44-55-77-------|
A--55-77--7-7-55-33--|--55-77--7-~-44-55-77-------|
E---------5-5--------|---------5-~-22-33-55-------|
                                 ^-sa part na to, pwede kayong magslide 
                                   down galing A papuntang F#
Verse:
*Same thing, main riff pa rin
e--------------------|----------------------------|
B--------------------|----------------------------|
G--77-99------77-55--|--77-99---------------------|
D--77-99--7-7-77-55--|--77-99--7-~-44-55-77-------|
A--55-77--7-7-55-33--|--55-77--7-~-44-55-77-------|
E---------5-5--------|---------5-~-22-33-55-------|
'Pag lumakad ka sa init, magdala ng sumbrero
Para 'di mainitan ang iyong bumbunan
'Pag lumakad sa ulan, magdala ka ng kapote
O kaya'y pulang payong para 'di ka sipunin


Chorus:
e-------------|-------------|
B-------------|-------------|   *Isa-isang strum lang. 
G--4~~~-------|--4~~~-------|   *let it ring.
D--4~~~7~~~---|--4~~~7~~~---|
A--2~~~7~~~---|--2~~~7~~~---|
E------5~~~---|------5~~~---|
Maglakad sa araw (maglakad sa araw)
Maglakad sa buwan (maglakad sa buwan)
Tipid sa pamasahe
Pampatibay ng katawan


e--------------------|----------------------------|
B--------------------|----------------------------|
G--77-99------77-55--|--77-99---------------------|   *main riff ulet after
D--77-99--7-7-77-55--|--77-99--7-~-44-55-77-------|    ng chorus.
A--55-77--7-7-55-33--|--55-77--7-~-44-55-77-------|
E---------5-5--------|---------5-~-22-33-55-------|
Two...
Three...
Four...

2nd Verse:
*ganun lang din. main riff
e--------------------|----------------------------|
B--------------------|----------------------------|
G--77-99------77-55--|--77-99---------------------|
D--77-99--7-7-77-55--|--77-99--7-~-44-55-77-------|
A--55-77--7-7-55-33--|--55-77--7-~-44-55-77-------|
E---------5-5--------|---------5-~-22-33-55-------|
'Pag lumakad sa baha, magsuot ng bota
Para manatiling tuyo ang iyong paa
'Pag lumakad sa dilim, magbaon ng flashlight
Para 'di ka maligaw at lamunin ng mamaw


2nd Chorus:
*ganun na naman din. XD
e-------------|-------------|
B-------------|-------------|   *Isa-isang strum lang. 
G--4~~~-------|--4~~~-------|   *let it ring.
D--4~~~7~~~---|--4~~~7~~~---|
A--2~~~7~~~---|--2~~~7~~~---|
E------5~~~---|------5~~~---|
Maglakad sa araw (maglakad sa araw)
Maglakad sa buwan (maglakad sa buwan)
Tipid sa pamasahe
Pampatibay ng katawan

REFRAN:
e--------------------------------------------|
B--------------------------------------------|
G--------------------------------------------|  2x ata..
D--555555----7777777-----555555----7777777---|
A--555555----7777777-----555555----7777777---|
E--333333----5555555-----333333----5555555---|
La-lakad, la-lakad
La-lakad, la-lakad


3rd Verse:
*ganun lang din ung riff.. main riff..
e--------------------|----------------------------|
B--------------------|----------------------------|
G--77-99------77-55--|--77-99---------------------|
D--77-99--7-7-77-55--|--77-99--7-~-44-55-77-------|
A--55-77--7-7-55-33--|--55-77--7-~-44-55-77-------|
E---------5-5--------|---------5-~-22-33-55-------|
'Pag lumakad ka sa putik, magbaon ng pampalit
Siguradong tatalsik, malapot at malagkit (hey)
'Pag lumakad ka sa gubat, magdala ng itak
Panghawi sa daan; tabi-tabi po d'yan

[Repeat CHORUS]
[Repeat REFRAIN twice]


*and that's the tab of the song "Lakad" by Sandwich
 (^_^) \m/, mabuhay ang mga taga-UPLB! :D

comments
We did not receive enough feedback on this tab! Please rate:
print report bad tab
1 2 3 4 5
I want to post or [tab]
guest
You may want to rate the tab now too:
select rating
Please do not post tabs as comments. Select "correction" instead!