Oops, an error
Loading. Please wait.

Masilungan Tab

version 1
version 1

Whole song

1,714 views 6 this week
2 commentsread comments
1 2 3 4 5
please rate
add to favorites
launch autoscroll
font size
0
reset
how to read this tab
guitar tuner
Tab Pro tools
  • play this tab
  • loop segment
  • change instrument
  • show fretboard
  • metronome
×
Best way to learn
"Masilungan"
Autoscroll
slow
fast
+/-
esc
set tempo
stop
Oct 28 2005
3:20 pm

Tabbed by:Carl Aguilar of Pateros Cstholic School's "Silver Plated Kamote"
Email:godz323@yahoo.com

 /=slide up
 \=slide down

Verse:1
(pakinggan nyo ung slide para makuha nyo yung pattern kung paano.
pagkatapos yan nung unang chord)
(pakinggan nyo na rin kung paano yung strumming)
          Cm
e|--------4----------|----------------------------|
B|--------5----------|----------------------------|
G|--------6----------|---------77/9\7----77/9\7---|
D|--------6----------|---------55/7\5----55/7\5---|
A|--------4----------|----------------------------|
E|-------------------|----------------------------|
   "Bakit mo pinabayaan" 
   "unti unting nauubusan"
   "mga dahong nawawala"
   "hindi pa rin naniwala"

Chorus (repeat 2x)
e|---------|---------|--------7----|
B|---------|---------|--------7----|
G|----1----|---------|--------6----|
D|----2----|----4----|----7---7----|
A|----2----|----4----|----7---7----|
E|---------|----2----|----5---5----|
  "Wala na   tayong    masilungan"    

Verse 2 (same as verse 1)

  "Bakit di mo iningatan"
  "unti unting nasugatan"
  "mga sangang naputol"
  "pangakong nagkabuhol buhol"

Chorus (repeat 3x)

Bridge (Lagyan nyo ng overdrive o kaya dist. pero mababa lang ung low frequency)
e|---------4----------|-----------|
B|---------5----------|-----------|
G|---------6----------|-----1-----|
D|---------6----------|-----2-----|
A|---------4----------|-----2-----|
E|--------------------|-----------|
      "Bakit di mo     pinaglaban"
      "mga munting     ala-ala"
      "Lahat tayo'y    mababasa"

e|---------4------------|--------------------------------|
B|---------5------------|---------------4----------------|
G|---------6------------|---------------4----------------|
D|---------6------------|---------------2----------------|
A|---------4------------|--------------------------------|
E|----------------------|--------------------------------|
   "kapag ang langit ay   biglang lumuha.. biglang lumuha..

Chorus (repeat 5x)
e|---------|---------|--------7----|
B|---------|---------|--------7----|
G|----1----|---------|--------6----|
D|----2----|----4----|----7---7----|
A|----2----|----4----|----7---7----|
E|---------|----2----|----5---5----|
  "Wala na   tayong    masilungan" 
  "wala na   tayo..    wala na tayo"
  "wala na   tayo..    bakit wala na tayo"

Last Strum
      C#m
e|----4----|
B|----5----|
G|----6----|
D|----6----|
A|----4----|
E|---------|

Note:PAKINGGAN NYO UNG STRUMMING KUNG ILANG BESES PARA MABUO NYO NG MAAYOS..

Thats all... Kaya nyo yan madali lng yan.... Peace out!...

   


comments
We did not receive enough feedback on this tab! Please rate:
print report bad tab
1 2 3 4 5
2 comments total.
-1 reply
kulangot wrote on February 11 2006, 05:53 pm

hoy tanga mali yang ginawa mo bobo ka!!!

0 reply
caffeinerich wrote on December 19 2011, 10:57 pm

I think the slide thing is like:

e|--------4----------|----------------------------|
B|--------5----------|----------------------------|
G|--------6----------|---------6/8--8/10-6--------| 2x
D|--------6----------|----------------------------|
A|--------4----------|---------4/6--6/8--4--------|
E|-------------------|----------------------------|

other than that good job on the chords

I want to post or [tab]
guest
You may want to rate the tab now too:
select rating
Please do not post tabs as comments. Select "correction" instead!