Oops, an error
Loading. Please wait.

Procrastinator Tab

version 1
version 1

Whole song

Interactive

3,504 views 6 this week
6 commentsread comments
1 2 3 4 5
accurate
x 4
add to favorites
launch autoscroll
font size
0
reset
how to read this tab
guitar tuner
Autoscroll
slow
fast
+/-
esc
set tempo
stop
Help us to improve Ultimate-Guitar.com Take our survey!
×
Difficulty
intermediate
Alright guys, this is my first tab, so please bear with me if it isn't 100% accurate, 
I think I got the intro right. If you have any comments, send 'em over to madsimster44@yahoo.com

TUNING: Standard E

PROCRASTINATOR by SANDWICH from the album S MARKS THE SPOT

Intro/Verse:

e|----------------|
B|----------------|
G|----------------| -->> Repeat until chorus
D|----------------|
A|----------------|
E|0-0000000000-5-3|

Chorus:

e|-----------------------------------------|
B|-----------------------------------------|
G|55-55-22-22-------55-55-22-22------------| -->> Repeat twice
D|55-55-22-22-55-55-55-55-22-22-99-99-99-99|
A|33-33-00-00-55-55-33-33-00-00-99-99-99-99|
E|------------33-33-------------77-77-77-77|

And that's basically the whole song. Just repeat the intro/verse after each chorus. 
the end, the guitar stops then repeats the intro/verse.

Can't get the adlibs, only the basic chords and notes. Sorry guys. Gotta wait for 
tabber for that.

Enjoy!
Suggest correction
comments
print report bad tab
6 comments total. Showing first comments.
0 reply
kinged 10 wrote on March 23 2008, 09:02 pm

pede na pede na.. hehehe.. meron na pala naka kuha... :)).... appreigo lng ng E ung mga adlib ni mong mga tol... bgyan na kta 5*.. nice.. tgnan mo ung correction ko dun sa 1* na rating na procrastinator dn... 2 lang kau nagpost dito e..

0 reply
xchl 32 wrote on April 8 2008, 06:56 am

mganda haha! mas maganda kung merong magaling na tabber na magpopost ng mga riffs ni mong

0 reply
kinged 10 wrote on April 17 2008, 06:16 am

e|--------------------------------------|
B|--------------------------------------|
G|-----4-2-0-----4-2-------4-2-0--------|
D|-2-5-------2-5-------2-5-------2-5-5-2|
A|--------------------------------------|
E|--------------------------------------|

try nyo yan... alam ko yan ung intro e.... hehehe tpos ung sa bridge habang nagsstrum ng E-A-G ulitulitin nyo lang ung chord na E sa 7th fret...:
e|--------|
B|--------|
G|-9-9-9--|
D|-x-x-x--|
A|-7-7-7--|
E|--------|

guest
You may want to rate the tab now too:
select rating
Wanna post a correction for this tab? Suggest correction