Oops, an error
Loading. Please wait.

Sakyan Tab

262 views 1 this week
no commentswrite comment
1 2 3 4 5
please rate
add to favorites
launch autoscroll
font size
0
reset
how to read this tab
guitar tuner
Autoscroll
slow
fast
+/-
esc
set tempo
stop
Help us to improve Ultimate-Guitar.com Take our survey!
×
Sakyan - Sandwich

tabbed by: Joshua Flores

Verses:
    F      C      D      Bb D#
e|------------------------------------------------------|
B|------------------------------------------------------|
G|---------5555---7777---33\88--------------------------|
D|--3333---5555---7777---33\88--------------------------|
A|--3333---3333---5555---11\66--------------------------|
E|--1111------------------------------------------------|

Chorus:

note: * - mute

    F        C            D            Bb D#
e|------------------------------------------------------|
B|------------------------------------------------------|
G|-----------5555---------7777---------33\88------------|
D|--3333-----5555---------7777---------33\88------------|
A|--3333-----3333---------5555---------11\66------------|
E|--1111------------------------------------------------|
    kay rami nang napuntahan hindi parin matagpuan

    F            C        D          Bb
e|------------------------------------------------------|
B|------------------------------------------------------|
G|---------------5555-----*7777------*3333--------------|
D|--3333---------5555-----*7777------*3333--------------|
A|--3333---------3333-----*5555------*1111--------------|
E|--1111------------------------------------------------|
    San galing ang luha hindi naman umiiyak

      Bbm7              F       C5/G   D#5/Bb
e|------------------------------------------------------|
B|----*2222---------------------------------------------|
G|----*3333---------------------------------------------|
D|----*3333-------------3333----5555---888--------------|
A|----*1111-------------3333----3333---666--------------|
E|----------------------1111----3333---666--------------|
    Mayron pa bang masasakyan?


Hindi mapigil biglang nawawala naglalahong parang tula
Laging pagod wala namang ginagawa di na marunong mahiya

Kay rami nang napuntahan hindi pa rin matagpuan
'San galing ang luha hindi naman umiiyak
mayron pa bang masasakyan?

Walang pinapansin, walang kinilala nawawala
tuluy-tuloy bumubula
may dalang baon, napapatulala, nagwawala
nasisingitan ng bigla

Galing dito wala nang masakyan
galing dito merong nasasaktan
anong sabi mo di na nasasakyan
Suggest correction
Give kudos to tab author, rate the tab!
1 2 3 4 5
comments
print report bad tab
guest
You may want to rate the tab now too:
select rating
Wanna post a correction for this tab? Suggest correction