Oops, an error
Loading. Please wait.

El Silencio De La Noche Tab

752 views 6 this week
no commentswrite comment
1 2 3 4 5
3 more votes to show rating
add to favorites
launch autoscroll
font size
0
reset
how to read this tab
guitar tuner
×
Best way to learn
"El Silencio De La Noche"
Autoscroll
slow
fast
+/-
esc
set tempo
stop
Espero que les guste ya q no hay ningun tabulado de esta canción,
un saludo!!!!


E||--------------------------|--------------------------|
B||--------------3-----------|-----------3--------------|
G||--------0-----------0-----|-----0--------------0-----|
D||-----4-----4-----4--------|--4-----4--------4-----4--|
A||--------------------------|--------------------------|
E||--3--------------------3--|--------------3-----3-----|


--------------------------|--------------------------|
--------------3-----------|-----------3--------------|
--------0-----------0-----|-----0--------------0-----|
-----4-----4-----4-----4--|--------4--------4-----0--|
--------------------------|--------------------------|
--0-----------------------|--0-----------0-----------|


--------------------------|--------------------------|
--------------3-----------|-----------3--------------|
--------0-----------0-----|--------0-----------0-----|
-----5-----5-----5-----5--|-----5-----------5-----5--|
--3-----------------------|--3-----------3-----------|
--------------------------|--------------------------|


--------------------------|--------------------------|
--------------1-----------|-----------1--------------|
--------0-----------0-----|--------4--------4--------|
-----2-----2-----2-----2--|-----2--------------2-----|
--0-----------------------|--0-----------0--------0--|
--------------------------|--------------------------|


--------------------------|-----------------------|----------------------|
--------------0--1--------|-----------------------|----------------------|
-----------2--------2--0--|-----0--2--------------|-------------------2--|
--------0-----------------|--4--------0-----------|--L------------5------|
-----0--------------------|-----------------------|-----------5----------|
--2-----------------------|-----------------------|----------------------|


------------------------|-------------------|--------------------------|
----0-------------------|-------------------|--------------3-----------|
--L-----2---------------|-------------------|--------0-----------0-----|
------------5-----------|-------------------|-----4-----4-----4-----4--|
------------------------|-------------------|--------------------------|
----------------3---L---|--L----------------|--3-----------------------|


--------------------------|--------------------------|
-----------3--------------|--------------3-----------|
--------0-----------0-----|--------0-----------0-----|
-----4-----------4-----4--|-----4-----4-----4-----4--|
--------------------------|--------------------------|
--3-----------3-----------|--0-----------------------|


--------------------------|--------------------------|
-----------3--------------|--------------1-----------|
--------0-----------0-----|--------0-----------0-----|
-----4-----------4-----0--|-----2-----2-----2-----2--|
--------------------------|--3-----------------------|
--0-----------0-----------|--------------------------|


--------------------------|--------------------------|
-----------1--------------|--------------3-----------|
--------0-----------0-----|--------0-----------0-----|
-----2-----------2-----2--|-----4-----4-----4-----4--|
--3-----------3-----------|--5-----------------------|
--------------------------|--------------------------|


--------------------------|--------------------------|
-----------3--------------|--------------3-----------|
--------0-----------0-----|--------0-----------0-----|
-----4-----------4-----4--|-----4-----4-----4-----4--|
--5-----------5-----------|--------------------------|
--------------------------|--3-----------------------|


--------------------------|--------------------------|
-----------3--------------|--------------3-----------|
--------0-----------0-----|--------0-----------0-----|
-----4-----------4-----4--|-----4-----4-----4-----4--|
--------------------------|--------------------------|
--3-----------3-----------|--0-----------------------|


--------------------------|--------------------------|
-----------3--------------|--------------1-----------|
--------0-----------0-----|--------0-----------0-----|
-----4-----------4-----0--|-----2-----2-----2-----2--|
--------------------------|--3-----------------------|
--0-----------0-----------|--------------------------|


--------------------------|--------------------------|
-----------1--------------|--------------3-----------|
--------0-----------0-----|--------0-----------0-----|
-----2-----------2-----2--|-----4-----4-----4-----4--|
--3-----------3-----------|--5-----------------------|
--------------------------|--------------------------|


--------------------------|--------------------------|
-----------3--------------|--------5-----------------|
--------0-----------0-----|-----------------0-----0--|
-----4-----------4-----4--|-----5--------5-----------|
--5-----------5-----------|--3--------3--------3-----|
--------------------------|--------------------------|


--------------------------|--------------------------|
--------------3-----------|-----------1--------------|
--------0-----------0-----|--------0-----------0-----|
-----0-----0-----0-----0--|-----2-----------2-----2--|
--2-----------------------|--0-----------0-----------|
--------------------------|--------------------------|


--------------2-----------|--------------------------|
--------3--------------0--|--------5-----------------|
-----2-----2--------2-----|-----------------0-----0--|
--0--------------0--------|-----5--------5-----------|
--------------------------|--3--------3--------3-----|
--------------------------|--------------------------|


--------------------------|--------------------------|
--------------3-----------|-----------1--------------|
--------0-----------0-----|--------0-----------0-----|
-----0-----0-----0-----0--|-----2-----------2-----2--|
--2-----------------------|--0-----------0-----------|
--------------------------|--------------------------|


--------------2-----------|--------------------------|
--------3-----------3--0--|--------------3-----------|
-----2-----2-----2--------|--------0-----------0-----|
--0-----------------------|-----4-----4-----4--------|
--------------------------|--------------------------|
--------------------------|--3--------------------3--|


--------------------------|--------------------------|
-----------3--------------|--------------3-----------|
-----0--------------0-----|--------0-----------0-----|
--4-----4--------4-----4--|-----4-----4-----4-----4--|
--------------------------|--------------------------|
--------------3-----3-----|--0-----------------------|


--------------------------|--------------------------|
-----------3--------------|--------------3-----------|
-----0--------------0-----|--------0-----------0-----|
--------4--------4-----0--|-----5-----5-----5-----5--|
--------------------------|--3-----------------------|
--0-----------0-----------|--------------------------|


--------------------------|--------------------------|
-----------3--------------|--------------1-----------|
--------0-----------0-----|--------0-----------0-----|
-----5-----------5-----5--|-----2-----2-----2-----2--|
--3-----------3-----------|--0-----------------------|
--------------------------|--------------------------|


--------------------------|--------------------------|
-----------1--------------|--------------0--1--------|
--------4--------4--------|-----------2--------2--0--|
-----2--------------2-----|--------0-----------------|
--0-----------0--------0--|-----0--------------------|
--------------------------|--2-----------------------|


-----------------------|----------------------|------------------------|
-----------------------|----------------------|----0-------------------|
-----0--2--------------|-------------------2--|--L-----2---------------|
--4--------0-----------|--L------------5------|------------5-----------|
-----------------------|-----------5----------|------------------------|
-----------------------|----------------------|----------------3---L---|
Suggest correction
Give kudos to tab author, rate the tab!
1 2 3 4 5
comments
print report bad tab
guest
You may want to rate the tab now too:
select rating
Wanna post a correction for this tab? Suggest correction