Oops, an error
Loading. Please wait.

Mil Y Una Noches Chords

288 views 1 this week
no commentswrite comment
1 2 3 4 5
3 more votes to show rating
add to favorites
launch autoscroll
font size
0
reset
transpose
0
reset
display chords
guitar tuner
×
Best way to learn
"Mil Y Una Noches"
Autoscroll
slow
fast
+/-
esc
set tempo
stop
Ojala manden mas tabs de este Excelente grupo... la 
intro va con el acompañamiento a 2 guitarras.

Intro: 0:01
Riff. Intro

------------------------------------------------------------------|-------|
------------------------------------------------------------------|-------|
-------8--9---8--9----9------9-------9----9---8--9----8--9---8--9-|-9-9-8-|
-11--9------9------9---9--7----9--7----9----9-------9------9------|-9-9-9-|     
------------------------------------------------------------------|-------|
------------------------------------------------------------------|-------|

0:07  
Esto 2 veces:
------------------------------------------------------------------|-------|
------------------------------------------------------------------|-------|
-------8--9---8--9----9------9-------9----9---8--9----8--9---8--9-|-9-9-8-|
-11--9------9------9---9--7----9--7----9----9-------9------9------|-9-9-9-|     
------------------------------------------------------------------|-------|
------------------------------------------------------------------|-------|
 
 C#m                 A                    B 


0:22 
Empieza la letra...
A 
  La Magia de la noche
C#m                 Riff. I
  Su trampa me tendio
A 
  Y entre la multitud
C#mm            Riff. I
  Solos tu y yo.
---------------------
A  
  Ven hacia mi
  no tengas miedo
C#m              Riff. I
  quiero sentir
            A 
  Que me abraza tu fuego
  Mientras tus dedos
   B                  Riff. II
  Encienden mi pasion.

0:51
Coro:
C#m       A 
  Contigo vivire
B 
  1000 y una noches
C#m         A 
  Mis labios en tu piel
B 
  1000 y una noches.

1:05 
2da. estrofa (Se toca igual que cuando empieza la letra)

A 
  Que misterio esconde
C#m              Riff. I
  tu forma de mirar
A 
  Que sin saber tu nombre 
C#m                  Riff. I
  Ya te empiezo a amar
----
A 
  Y pierdo el control
  de mis sentidos
C#m           Riff. I
  y mi obsecion
      A 
  es tenerte conmigo
  y como un bandido
    B               Riff. II
  robarte el corazon.

1:34
Coro:

C#m       A 
  Contigo vivire
B 
  1000 y una noches
C#m         A 
  Mis labios en tu piel
B 
  1000 y una noches.
              C#m             A 
  Entregate a mi y quedate aqui
 B 
  1000 y una noches
             C#m          A           B 
  y yo te dare 1000 y una noches de placer.

*En el Coro pueden meter el Riff del Intro y queda muy bien.

2:02
Solo

El solo lleba en acompañamiento 

C#m - A  - B  Todo el Solo

---------------------------------------------|
------------------------10-9-9--10-----------|
--9-8-9-----11-9-11-----9--9-9--9----11-11---|
--9-9-9-----9--9-9-------------------9--9----|
---------------------------------------------|
---------------------------------------------|
  C#m      A          B 


Lo demas no lo puse por que no lo tengo bien y sería muy confuso
para ustedes, mejor improvisen algo sobre la escala de Do#m o su 
Relativa MiM, si no saben muy bien improvisar mezclen las escalas
de Do#m y la Pentatonica de esta misma.

Escala de Do#m
Do#/Re#/Mi/Fa#/Sol#/La/Si/
Pentatonica de Do#m
C#/   /E/FA#/Sol#/  /B/

2:32
Estribillo Pre-Coro
A                  F#m
  Tu Mirada de cristal
      E        F#m
  Me dice sin hablar
        B 
  Sere Para ti

2:46
Coro 1/2 Mas Arriba (Rem)

*Meter el Riff. Intro +1/2 pero recorrido un tono 
mas arriba (recorran un traste arriba, empiezan 
ahora en el traste 12)


Dm       A# 
  Contigo vivire
C 
  1000 y una noches
Dm         A# 
  Mis labios en tu piel
C 
  1000 y una noches.
              Dm             A# 
  Entregate a mi y quedate aqui
 C 
  1000 y una noches
             Dm          A#           C 
  y yo te dare 1000 y una noches de placer.

        Dm            A# 
  Y estare (Estare) junto a ti
C 
  1000 y una noches
        Dm                 A# 
  Y estare (Estare) junto a ti
C 
  1000 y una noches

  Riff. III y Riff. Intro+1/2 ... Mil y una noches...

------------------------------------- 
Riff. I
          
|-------|
|-------|
|-9-9-8-|
|-9-9-9-|     
|-------|
|-------|

Riff. II

|-------------------------|
|-------------------------|
|-------8-9---8-9----8-9--|
|-11--9-----9------9------|
|-------------------------|
|-------------------------|

Riff. Intro+1/2
|----------------------------------------------------------------------------------|
|----------------------------------------------------------------------------------|
|-------9--10----9--10----10--------10--------10----10-----9--10----9--10----9--10-|
|-12--10------10------10----10---8-----10--8-----10----10--------10-------10-------| 
|----------------------------------------------------------------------------------|
|----------------------------------------------------------------------------------|


Riff. III

|-----------------------------------------------------|
|----------------------------11-10-10--11-------------|
|--10-9--10-----12-10-12-----10-10-10--10-----12-12---|
|--10-10-10-----10-10-10----------------------10-10---|
|-----------------------------------------------------|
|-----------------------------------------------------|


*NOTA: De los Acordes se tocan solo sus respectivas Quintas, no todo el Acorde.


Si Alguien tiene mp3s de Sangre Azul, mande un mail plis. Se los agradecere.
Suggest correction
Give kudos to tab author, rate the tab!
1 2 3 4 5
comments
print report bad tab
guest
You may want to rate the tab now too:
select rating
Wanna post a correction for this tab? Suggest correction