Oops, an error
Loading. Please wait.

No Puedo Estar Sin Ti Tab

305 views 3 this week
no commentswrite comment
1 2 3 4 5
3 more votes to show rating
add to favorites
launch autoscroll
font size
0
reset
how to read this tab
guitar tuner
Autoscroll
slow
fast
+/-
esc
set tempo
stop
Help us to improve Ultimate-Guitar.com Take our survey!
×
BUENO ESTA ROLA QUIERO DEDICARSELA A LA MUJER MAS INDECISA
DE ESTE MUNDO... PARA BRENDA ALEJANDRA GALINDO FIALLOS EN ECUADOR
DESDE QUITO QUE OJALA LE VAYA BIEN EN ESPAÑA QUE NO LA VOY A OLVIDAR
Y GRACIAS POR SER TAN ESPECIAL EN MI VIDA...
Y EN ESTA CANCIÓN TE DIGO TODO LO
 QUE SIENTO AHORA ?NO PUEDO ESTAR SIN TI?...
Y OJALA PUEDAS  REGRESAR A MI LADO
MI HELLO KITTY TE AMO¡
ATE. VINICIO VEGA G. 2005-07-18... AH PERDON
SI LE ALARGO PERO UN SALUDO PARA TODOS MIS
PANAS DEL EX 6TO FIMA QUE NOS
 GRADUAMOS 2004-2005 SUERTE EN LA VIDA LOCOS
 Y LOCAS...

Riff 1
e--------------------
B---------5----------
G----------------6---
D------------------6-
A---4----------------
E--------------------

Riff 2
e----------------
B-----------3----
G-------------4--
D----------------
A---2------------
E----------------

Riff 3
e--------------------
B---------3----------
G------------4-------
D----2---------------
A--------------------
E--------------------

Riff 4
e--------------------
B-----4--------------
G-----4--------------
D-----4--------------
A--------------------
E--------------------

Riff 5
e--------------------
B--------------------
G--------6-----------
D----------6---------
A--------------------
E--4-----------------

Riff 6
e--------------------
B--------------------
G--------6-----------
D-----------7--------
A-------------7------
E--5-----------------

Riff 7
e--------------------
B--------------------
G--------------------
D---------6----------
A-----------6--------
E---4----------------

Riff 8
e--------------------
B--------------------
G--4-----------------
D--------6-----------
A--------6-----------
E--4-----------------

Riff 9
e--------------------
B--------------------
G--2-----------------
D----------4---------
A----------4---------
E--2-----------------

Intro va en este orden:
Riff 1 (aquí va una pausa) riff 1, riff 2, riff 3, riff 4 (pon oído a los tiempos)

Aquí empieza así:

Riff 1                       riff 2
Desperté, en la oscura habitación
           Riff 3            riff 4
Buscando ese calor, que solo tu me das.
Riff 5       riff 1          riff 2
Y otra vez, recobrando la razón
         Riff 3              riff 6 (x2)  riff 7
Me dice el corazón, que ya no volverás.
Riff 9         riff 8(x2)  riff 7(x2) riff 8
Y comienza un DIA más
Riff 9         riff 8(x2)  riff 7
No soy nada si no estás

SIm - LA  - RE 

CORO (UNA GUITARRA HACE LAS 5TAS DE LAS NOTAS CON DISTORCIÓN)

Estribillo:
RE                 LA 
En la fría oscuridad
                        SIm
de mi jaula de cristal, no,
MIm                LA 
no puedo estar sin ti
RE                  LA 
y atrapado en esta red
                SIm  MIm                   LA 
cada dia moriré, no , no puedo estar sin ti.

IGUAL QUE AL INICIO LAS ESTROFAS...

Ya lo ves de la injusta división
te llevas tú el amor
y yo la soledad.
Yo seré el eterno soñador que quiere oír tu voz
dime donde estás.
Y termina un día más,
y la noche es mi rival

coro x1

SI              LA 
Tu me olvidarás
           F#           SIm     LA  SIm DO#m
y seguiré viviendo en este infierno.

AQUÍ ENTRA UN SINTETIZADOR CON LA#
EL SOLO VA LUEGO, AUN NO LO SACO PERO YA ESTOY EN ESO... IM SORRY

REPITES CORO 2 VECES Y TERMINAS LENTO


QUE VIVA EL HEAVY Y SI TIENEN SUGERENCIAS O ALGO ESCRIBAN A
viniciometal@    [quito-ecuador]
Suggest correction
Give kudos to tab author, rate the tab!
1 2 3 4 5
comments
print report bad tab
guest
You may want to rate the tab now too:
select rating
Wanna post a correction for this tab? Suggest correction