Oops, an error
Loading. Please wait.

Travesti Bass

125 views 1 this week
no commentswrite comment
1 2 3 4 5
3 more votes to show rating
add to favorites
launch autoscroll
font size
0
reset
guitar tuner
×
Best way to learn
"Travesti"
Autoscroll
slow
fast
+/-
esc
set tempo
stop
T
-4444-666-4-22222222-----------------------------------
-------------------------------------------------------
-------------------------------------------------------
------------------------0-5-0-7-0-5-0-7----------------

Todo esta bien esta bien...
-------------------------------------------------
-------------------------------------------------
-------------------------------------------------
-0-00-0-00--7-77-7-77--5-55-5-55--7-77-7-77------

Aha, que te pasa Javier...
--------------------------------------------------------
--------------------------------------------------7-9---
-------------------7-9-7----------------------7-9-------
-7777-999-7-5--7-9-------9--7777-999-7-5--7-9-----------

No importa Javier...
---------------------------
------10----8----11-10-----
---------------------------
-0-------------------------
Suggest correction
Give kudos to tab author, rate the tab!
1 2 3 4 5
comments
print report bad tab
guest
You may want to rate the tab now too:
select rating
Wanna post a correction for this tab? Suggest correction