Oops, an error
Loading. Please wait.

Nothing Compares To You solo tab

version 2
version 2

Solo

  • Contains the solos in the middle of the song. Tran... Show more
1,009 views 18 this week
no commentswrite comment
1 2 3 4 5
3 more votes to show rating
add to favorites
×
Save as Personal and add changes to this tab that will be seen only by you. Learn more ›
×
You can save this tab as Personal to edit and correct it or add notes. All changes will be seen only by you. Learn more »
launch autoscroll
font size
0
reset
how to read this tab
guitar tuner
edit
Autoscroll
slow
fast
+/-
esc
set tempo
stop
-------------------------------------------------------------------------------
                             Nothing Compares To You - Santa Cruz
-------------------------------------------------------------------------------
E-mail:adampietrowicz050@gmail.com
Here is 2nd solo of Santa Cruz's song called Nothing Compares to you. I hope you'll enjoy it :) 
Tuning: half step down

e|-----15------------------------------------15p14---------------------------|
B|-15b----15br17p13-------15-----------------------15------------------------|
G|------------------14b16----14br16p12h14p12----------14\12p11----11b12b11---|
D|-------------------------------------------------------------12------------|
A|---------------------------------------------------------------------------|
E|---------------------------------------------------------------------------|
PM...........
e|----------------------------------15/17----17\15-------15----15----15/17-15p14----|
B|---------------------17/20-----------------------------------------------------15-|
G|---------------------------/12-12-------14-------12-12----12----12----------------|
D|-7------------/14-14--------------------------------------------------------------|
A|---10-9-7-5-----------------------------------------------------------------------|
E|----------------------------------------------------------------------------------|

e|-------------------15----------15-17-19-20~~-20b22-19~-19b20-17~-----------|
B|-15-17-19-15-17-19----15-17-19-----------------------------------17br18p15-|
G|---------------------------------------------------------------------------|
D|---------------------------------------------------------------------------|
A|---------------------------------------------------------------------------|
E|---------------------------------------------------------------------------|

e|-13p10----------------------------12p15----------------------------15-17~-15-14~-|
B|-------10-11-13-11-13-15-11-13-15-------12-13-15-13-15-17-13-15-17---------------|
G|---------------------------------------------------------------------------------|
D|---------------------------------------------------------------------------------|
A|---------------------------------------------------------------------------------|
E|---------------------------------------------------------------------------------|
I'm not sure is it 100% correct
e|-13-10----10-------------------------------------------------------------------20b20~~--|
B|-------13----13-10----10-------------------------------------18p15----20p17-------------|
G|-------------------12----12-10----10----------------14-15-17-------17-------19----------|
D|-------------------------------12----12-10/14-15-17-------------------------------------|
A|----------------------------------------------------------------------------------------|
E|----------------------------------------------------------------------------------------|

************************************

| /   slide up
| \   slide down
| h   hammer-on
| p   pull-off
| ~   vibrato
| +   harmonic
| x   Mute note
| b   Bend
| pb  Pre-bend
| br  Bend release
| pbr Pre-bend release
| brb Bend release bend

************************************

            
            
Suggest correction
Creating personal tab
Creating personal tab
You can edit any tab online and save it as your Personal.

You can edit, replace or remove any tab part or add personal notes – all changes will be seen only by you.

Personal tabs can be accessed anytime from any device, even offline.
Learn more »
Give kudos to tab author, rate the tab!
1 2 3 4 5
comments
print report bad tab
guest
You may want to rate the tab now too:
select rating
Wanna post a correction for this tab? Suggest correction