Oops, an error
Loading. Please wait.

Nothing Compares To You solo tab

version 3
version 3

Solo

  • Contains the solos in the middle of the song. Tran... Show more
37 views 9 this week
no commentswrite comment
1 2 3 4 5
3 more votes to show rating
add to favorites
×
Save as Personal and add changes to this tab that will be seen only by you. Learn more ›
×
You can save this tab as Personal to edit and correct it or add notes. All changes will be seen only by you. Learn more »
launch autoscroll
font size
0
reset
how to read this tab
guitar tuner
edit
Autoscroll
slow
fast
+/-
esc
set tempo
stop
About this tab version
Contains the solos in the middle of the song. Transcribed with with time and precision. Was this info helpful? Yes No
Santa Cruz - Nothing compares to you

I made the tab for myself so I didn't care about rhythmical aspects that much since I'm very familiar with the
solo. I concentrated on getting every note right when it comes to pitch and I'd say it was a success. If you
have listened to the song and listen to it while practicing you will get it right. For now it's missing the
shorter solo after the first chorus at about 1:35 into the song as well as the one towards the end playing
during the last couple of verses. I might add them some time later.


The most important thing about especially this solo is to learn to play it very comfortably and with FEEL!


  Archie:                                       F       F        F  F
D#|--------------------------------------------------------15---------------|
A#|-------------------8-8----------------------------------15---------------|
F#|-------------------7-7-9-7-9~~-------12-14-14br-12-14b-----pb14pb14r-12~-|
C#|--5-5------------------9-7-9~~-------------------------------------------|
G#|------7-5-7~~------------------------------------------------------------|
D#|-------------------------------------------------------------------------|

                                                   H
D#|--------------------------------------------------------------------|
A#|-/20-20-20p19-19-19-19\17-17-17-17\15-15-15-15-14b---14~~-----------|
F#|--------------------------------------------------------------------|
C#|--------------------------------------------------------------------|
G#|--------------------------------------------------------------------|
D#|--------------------------------------------------------------------|

D#|----------------------------------------------------------------|
A#|----------------------------------------------------------------|
F#|----------------------------------------------12-14-16-12-14-16-|
C#|----------------------------12-14-16-12-14-16-------------------|
G#|----------12-14-15-12-14-15-------------------------------------|
D#|-12-14-15-------------------------------------------------------|

                                 F   F     F     F   T       T
D#|-------------------14-15-17--17b-17b---pb17r-17b--20-pb17-22-pb17r-|
A#|-13-15-17-13-15-17-------------------------------------------------|
F#|-------------------------------------------------------------------|
C#|-------------------------------------------------------------------|
G#|-------------------------------------------------------------------|
D#|-------------------------------------------------------------------|

     F             F
D#|------20-20-20-----------------/22-22-22\21-21-21-21\19-19-19-19\17-17-|
A#|--22b----------22br-20~------------------------------------------------|
F#|-----------------------------------------------------------------------|
C#|-----------------------------------------------------------------------|
G#|-----------------------------------------------------------------------|
D#|-----------------------------------------------------------------------|

              F
D#|-17-17--------------------14-14-14-14-14-14-15-15-15-15-15-15-|
A#|-------17------------17~~-------------------------------------|
F#|----------16br-14~~-------------------------------------------|
C#|--------------------------------------------------------------|
G#|--------------------------------------------------------------|
D#|--------------------------------------------------------------|

                                          H
D#|-17-17-17-17-17-17-19-19-19-19-19-19--19b---------------------------|
A#|--------------------------------------------------------------------|
F#|--------------------------------------------------------------------|
C#|--------------------------------------------------------------------|
G#|--------------------------------------------------------------------|
D#|--------------------------------------------------------------------|

  Johnny:
      F    F        F     F                 H
D#|-----15---------------------------------pb14r------------------|
A#|-15b---pb15r-13-----15-----------------------15----------------|
F#|----------------14b----pb14r-12-14-12-----------14-12-11-------|
C#|---------------------------------------------------------12----|
G#|------------------------------------------------------------12-|
D#|---------------------------------------------------------------|

      H                                                               H
D#|-------------------------12-12/15---15/17----17\15-15-15---15---15/17-14br------|
A#|----------------------------------------------------------------------------15~-|
F#|-11br-----------------------------12------14-------------12---12----------------|
C#|------12------------------------------------------------------------------------|
G#|---------12\10-9----------------------------------------------------------------|
D#|-----------------10-------------------------------------------------------------|

                                                            F
D#|-------------------15----------------15--17--19--20-----20b-19~-|
A#|-15-17-19-15-17-19----19-17-15-17-19----------------------------|
F#|----------------------------------------------------------------|
C#|----------------------------------------------------------------|
G#|----------------------------------------------------------------|
D#|----------------------------------------------------------------|

      H         H
D#|--19b--17~----------------------------------------------------------|
A#|------------18b--15~~-----------------------------------------------|
F#|--------------------------------------------------------------------|
C#|--------------------------------------------------------------------|
G#|--------------------------------------------------------------------|
D#|--------------------------------------------------------------------|

                                                                          F
D#|-13-10-------------10-------10-12-13/15-12-------------12-------12-13-15b--15-14~-|
A#|-------11----11-13----11-13----------------13----13-15----13-15-------------------|
F#|----------10----------------------------------12----------------------------------|
C#|----------------------------------------------------------------------------------|
G#|----------------------------------------------------------------------------------|
D#|----------------------------------------------------------------------------------|


D#|-15-13-10----13-10----------------------------------|
A#|----------11-------11----15-11-------15-11----------|
F#|----------------------10-------12-10-------12-10----|
C#|-------------------------------------------------12-|
G#|----------------------------------------------------|
D#|----------------------------------------------------|


D#|-------------------12-------15-------22~~-|
A#|----------13----13----13-------15---------|
F#|-------12----12----------14-------16------|
C#|----14------------------------------------|
G#|-15---------------------------------------|
D#|------------------------------------------|



************************************

~  Vibrato. Use a strong and big vibrato for Cruz songs!
p  Pull-off
b  bend. The letter H or F above the staff tells if it's a full or half tone bend.
pb Pre-bent note. 
r  release after a bend. Unless there is an r mute the string before releasing the bend.
T  above the staff. Tap the note with your picking hand.
/  slide up
\  slide down

************************************
Suggest correction
Creating personal tab
Creating personal tab
You can edit any tab online and save it as your Personal.

You can edit, replace or remove any tab part or add personal notes – all changes will be seen only by you.

Personal tabs can be accessed anytime from any device, even offline.
Learn more »
Give kudos to tab author, rate the tab!
1 2 3 4 5
comments
print report bad tab
guest
You may want to rate the tab now too:
select rating
Wanna post a correction for this tab? Suggest correction