Oops, an error
Loading. Please wait.

Wasted Wounded tab

1,813 views 18 this week
1 commentread comment
1 2 3 4 5
x 5
add to favorites
×
Save as Personal and add changes to this tab that will be seen only by you. Learn more ›
×
You can save this tab as Personal to edit and correct it or add notes. All changes will be seen only by you. Learn more »
launch autoscroll
font size
0
reset
how to read this tab
guitar tuner
edit
Autoscroll
slow
fast
+/-
esc
set tempo
stop
SANTA CRUZ

WASTED AND WOUNDED

Tuning: Eb (eb Bb Gb Db Ab Eb)


[Intro]

   lead (w/delay)
D#|-15----14-------17----15-|----14-------------------|-------------------------|-----------------------|
A#|----12----15-12----12----|-12----12-15-12-12-13-12-|-13-12----------------12-|-x-12-------12-x-------|
F#|-------------------------|-------------------------|-------12----------12----|------14-12------14-12-|
C#|-------------------------|-------------------------|-------------------------|-----------------------| 
G#|-------------------------|-------------------------|----------15-x-15--------|-----------------------|
D#|-------------------------|-------------------------|-------------------------|-----------------------|

   rhythm
D#|--------------------------------|-----------------------------|
A#|--------------------------------|-----------------------------|
F#|--------------------------------|-----------------------------|
C#|--------------------------------|-----5-5-----7p5---8p5---7p5-|
G#|--------------------------------|-5h7-----7-5-----7-----7-----|
D#|-/12\-0-0--0-0--0-0-0--0-0--0-0-|-----------------------------|
  pm     . .  .    . .    .    .         . . . .     .     .      

D#|---------------------------|------------------------| 
A#|---------------------------|------------------------|
F#|---------------------------|---------------------7*-| Repeat previous 4 bars
C#|---------------------------|-9p5---8p5---7p5--------|
G#|---------------------------|-----7-----7-----7-7----|
D#|-0-0--0-0--0-0-0--0-0--0-0-|------------------------|
  pm. .  .    . .    .    .         .     .     . .

   lead
D#|---------------------------|-------------------------------------------|
A#|---------------------------|-------------------------------------------|
F#|---------------------------|-------12-12-------14p12----15p12----14p12-|
C#|---------------------------|-12h14-------14-12-------14-------14-------|
G#|---------------------------|-------------------------------------------|
D#|-0-0--0-0--0-0-0--0-0--0-0-|-------------------------------------------|
  pm. .  .    . .    .    .           .  .  .  .        .        .         

D#|---------------------------|-----------------------------------|
A#|---------------------------|-------------------------------15*-|
F#|---------------------------|-16p12----15p12----14p12-----------| Repeat previous 4 bars
C#|---------------------------|-------14-------14-------14-14-----|
G#|---------------------------|-----------------------------------|
D#|-0-0--0-0--0-0-0--0-0--0-0-|-----------------------------------|
  pm. .  .    . .    .    .           .        .        .  .


[Verse]

   both guitars
D#|------------|---------------------|------------|-------------------|
A#|------------|---------------------|------------|--------------3----|
F#|------------|---------------------|------------|--------------2--2-|
C#|------------|---------------------|------------|--------------0--2-|
G#|--------2---|-----------------5---|--------2---|-----------------0-|
D#|-0-0--0-0---|--0-0--/6-5-3-/6---3-|-0-0--0-0---|--0-0--/6-5-3------|
  pm. .  .        . .                  . .  .        . .

D#|-----------------------|---------------------|-----------------------|-------------------|
A#|-----------------------|---------------------|-----------------------|-------------------|
F#|-----------------------|---------------------|-----------------------|-------------------|
C#|-----------------------|---------------------|-----------------------|-------------------|
G#|-2-2--2-2--2-2--2-2--2-|----------------5----|-2-2--2-2--2-2--2-2--2-|-----------5--7--8-|
D#|-0-0--0-0--0-0--0-0--0-|-0-0--/6-5-3-/6---3*-|-0-0--0-0--0-0--0-0--0-|-0-0--/6-5-3--5--6-|
  pm. .  . .  . .  . .      . .                   . .  . .  . .  . .      . .


[Pre-Chorus]

   both guitars
D#|--------0---|--------0---|--------0-----|
A#|------0-----|-3----3-----|--------------|
F#|------------|-2----------|-5----5-----5-|
C#|-2----------|-0----------|-5----------5-|
G#|-2----------|------------|-3----------3-|
D#|-0----------|------------|--------------|


[Chorus]

   lead (w/delay)
D#|-15----14-------17----15-|----14-------------------|-------------------------|-----------------------|
A#|----12----15-12----12----|-12----12-15-12-12-13-12-|-13-12----------------12-|-x-12-------12-x-------|
F#|-------------------------|-------------------------|-------12----------12----|------14-12------14-12-| X2
C#|-------------------------|-------------------------|-------------------------|-----------------------| 
G#|-------------------------|-------------------------|----------15-x-15--------|-----------------------|
D#|-------------------------|-------------------------|-------------------------|-----------------------|

   rhythm
D#|-----------------|-----------------|-----------------|-----------------|
A#|-----------------|-----------------|-----------------|-----------------|
F#|-----------------|-----------------|-----------------|-----------------|
C#|-----------------|-----------------|-5-5-5-5-5-5-5-5-|---------7-7-7-7-|
G#|-2-2-2-2-2-2-2-2-|---2-2-2-2-2-0-2-|-3-3-3-3-3-3-3-3-|---5-5-5-5-5-5-5-|
D#|-0-0-0-0-0-0-0-0-|---0-0-0-0-0-----|-----------------|---3-3-3---------|
                                                                         
D#|-----------------|-----------------|-----------------|---------------|
A#|-----------------|-----------------|-----------------|---------------|
F#|-----------------|-----------------|-----------------|---------------|
C#|-----------------|-----------------|-2-2-2-2-2-2-2-2-|-------7-7-7-7-|
G#|-2-2-2-2-2-2-2-2-|---2-2-2-2-2-----|-0-0-0-0-0-0-0-0-|-5-5-5-5-5-5-5-|
D#|-0-0-0-0-0-0-0-0-|---0-0-0-0-0-3-4-|-----------------|-3-3-3---------|
  pm                                                              .   .

   rhythm:         lead:
D#|-----|--------|------|---------|
A#|-----|--------|------|---------|
F#|-5---|----4-4-|--5---|----4-4*-|
C#|-5---|----4-4-|--5---|----4----|
G#|-3---|----2-2-|--3---|----2----|
D#|-----|--------|------|---------|


[Post-Chorus]

   both guitars
D#|---------------------------|
A#|---------------------------|
F#|---------------------------|
C#|---------------------------| X2
G#|---------------------------|
D#|-0-0--0-0--0-0-0--0-0--0-0-|
  pm. .  .    . .    .    .


[Verse]

   both:    rhythm:  lead:  rake behind the nut
D#|----------|----------|--------0----x----|
A#|----------|----------|--------0-----x---|
F#|----------|----------|---------------x--|
C#|----------|----------|----------------x-|
G#|--------2-|--------2-|------------------|
D#|-0-0--0-0-|-0-0--0-0-|-0-0--0-----------|
  pm. .  .     . .  .     . .  .

   both guitars:
D#|-------|
A#|-3-----|
F#|-2---2-|
C#|-0---2-|
G#|-----0-|
D#|-------|

D#|-----------------------|---------------------|-----------------------|-------------------|
A#|-----------------------|---------------------|-----------------------|-------------------|
F#|-----------------------|---------------------|-----------------------|-------------------|
C#|-----------------------|---------------------|-----------------------|-------------------|
G#|-2-2--2-2--2-2--2-2--2-|----------------5----|-2-2--2-2--2-2--2-2--2-|-----------5--7--8-|
D#|-0-0--0-0--0-0--0-0--0-|-0-0--/6-5-3-/6---3*-|-0-0--0-0--0-0--0-0--0-|-0-0--/6-5-3--5--6-|
  pm. .  . .  . .  . .      . .                   . .  . .  . .  . .      . .


[Pre-Chorus]

   both guitars
D#|--------0---|--------0---|--------0-----|
A#|------0-----|-3----3-----|--------------|
F#|------------|-2----------|-5----5-----5-|
C#|-2----------|-0----------|-5----------5-|
G#|-2----------|------------|-3----------3-|
D#|-0----------|------------|--------------|


[Chorus]

   lead (w/delay)
D#|-15----14-------17----15-|----14-------------------|-------------------------|-----------------------|
A#|----12----15-12----12----|-12----12-15-12-12-13-12-|-13-12----------------12-|-x-12-------12-x-------|
F#|-------------------------|-------------------------|-------12----------12----|------14-12------14-12-| X2
C#|-------------------------|-------------------------|-------------------------|-----------------------| 
G#|-------------------------|-------------------------|----------15-x-15--------|-----------------------|
D#|-------------------------|-------------------------|-------------------------|-----------------------|

   rhythm
D#|-----------------|-----------------|-----------------|-----------------|
A#|-----------------|-----------------|-----------------|-----------------|
F#|-----------------|-----------------|-----------------|-----------------|
C#|-----------------|-----------------|-5-5-5-5-5-5-5-5-|---------7-7-7-7-|
G#|-2-2-2-2-2-2-2-2-|---2-2-2-2-2-0-2-|-3-3-3-3-3-3-3-3-|---5-5-5-5-5-5-5-|
D#|-0-0-0-0-0-0-0-0-|---0-0-0-0-0-----|-----------------|---3-3-3---------|
                                                                         
D#|-----------------|-----------------|-----------------|---------------|
A#|-----------------|-----------------|-----------------|---------------|
F#|-----------------|-----------------|-----------------|---------------|
C#|-----------------|-----------------|-2-2-2-2-2-2-2-2-|-------7-7-7-7-|
G#|-2-2-2-2-2-2-2-2-|---2-2-2-2-2-----|-0-0-0-0-0-0-0-0-|-5-5-5-5-5-5-5-|
D#|-0-0-0-0-0-0-0-0-|---0-0-0-0-0-3-4-|-----------------|-3-3-3---------|
  pm                                                              .   .

   rhythm:         lead:
D#|-----|--------|------|---------|
A#|-----|--------|------|---------|
F#|-5---|----4-4-|--5---|----4-4*-|
C#|-5---|----4-4-|--5---|----4----|
G#|-3---|----2-2-|--3---|----2----|
D#|-----|--------|------|---------|


[Post-Chorus]

   both guitars
D#|---------------------------|
A#|---------------------------|
F#|---------------------------| X4 for rhythm
C#|---------------------------| X2 for lead
G#|---------------------------|
D#|-0-0--0-0--0-0-0--0-0--0-0-|
  pm. .  .    . .    .    .

   lead
D#|-(5)-------|-------|---22-22-22-22-22-22-|------|
A#|-----------|-(7)---|---------------------|------|
F#|-------(5)-|-------|---------------------|------|
C#|-----------|-------|---------------------|------|
G#|-----------|-------|---------------------|------|
D#|-----------|-------|---------------------|---0\-| dive bomb w/ whammy


[Solo 1]

   lead
D#|-/17-14-------------------------------------------------------------------|
A#|--------17-14-------17-14-------19-14-------17-14-------16-14-------------|
F#|--------------16-14-------16-14-------16-14-------16-14-------16-14-------|
C#|--------------------------------------------------------------------16-14-|
G#|--------------------------------------------------------------------------|
D#|--------------------------------------------------------------------------|

D#|--------------------19b21-|
A#|---------14---16b17-------|
F#|-16b18~~-14~~-------------|
C#|--------------------------|
G#|--------------------------|
D#|--------------------------|

      T      T                           T                      T     T
D#|-14p12p9-----------------------------19/22/19p14p12p9/12h14-20p19h20p19p17p14-|
A#|------------------------------------------------------------------------------|
F#|---------14p11p9-----------h14h16h18------------------------------------------|
C#|-----------------h11h14h16----------------------------------------------------|
G#|------------------------------------------------------------------------------|
D#|-----------------------------------------------------------------------------|

     T     T           T           T          
D#|-20p19h20p19p17p14-------------------------19b21-17b19----|
A#|-------------------19p17p16p15-------------------17b18-19-|
F#|-------------------------------18p17p16p14----------------|
C#|----------------------------------------------------------|
G#|----------------------------------------------------------|
D#|----------------------------------------------------------|

   rhythm
D#|-----------------------------|------------------------------|
A#|-----------------------------|------------------------------|
F#|-----------------------------|------------------------------|
C#|-----------------------------|------------------------------|
G#|-----------------------------|------------------------------|
D#|-2-2--2-2--2-2-2--2-2--2-2-2-|-2-2--2-2--2-2--2-2-2-2-2-2-2-|
pm.    .    . .    .    . . .   .    .    .    . .   . . . .  

D#|-----------------------------|---------------------|
A#|-----------------------------|---------------------|
F#|-----------------------------|---------------2-----|
C#|-----------------------------|---------------2---2-|
G#|-----------------------------|---------------0---2-|
D#|-2-2--2-2--2-2-2--2-2--2-2-2-|-2-2--2-2--2-2-----0-|
  pm.    .    . .    .    . . .   .    .    . .


[Bridge]

   both guitars
D#|-----------------------------|------------------------------|
A#|-----------------------------|------------------------------|
F#|-----------------------------|------------------------------|
C#|-----------------------------|------------------------------|
G#|-----------------------------|------------------------------|
D#|-2-2--2-2--2-2-2--2-2--2-2-2-|-2-2--2-2--2-2--2-2-2-2-2-2-2-|
pm.    .    . .    .    . . .   .    .    .    . .   . . . .  

D#|-----------------------------|---------------------|
A#|-----------------------------|---------------------|
F#|-----------------------------|---------------2-2-2-|
C#|-----------------------------|---------------2-2-2-|
G#|-----------------------------|---------------0-0-0-|
D#|-2-2--2-2--2-2-2--2-2--2-2-2-|-2-2--2-2--2-2-------|
  pm.    .    . .    .    . . .   .    .    . .


[Solo 2]

   lead
            T
D#|-------------|
A#|--------8/20-|
F#|-2*b4r2------|
C#|-------------|
G#|-------------|
D#|-------------|

     T        T        T        T        T
D#|-18p15p12------------------------------------------|
A#|----------17p15p12----------17p15p12---------------|
F#|-------------------16p14p12----------16p14p12/9----|
C#|------------------------------------------------8~-|
G#|---------------------------------------------------|
D#|---------------------------------------------------|

D#|-15-16-15----------15-16-15----------17-19-17----------17-18-17----------|
A#|----------17-15-------------17-15-------------20-17-------------20-17----|
F#|----------------16----------------16----------------18----------------18-|
C#|-------------------------------------------------------------------------|
G#|-------------------------------------------------------------------------|
D#|-------------------------------------------------------------------------|

D#|-19-15-------------18-15-------------17b19-|
A#|-------17-15-------------17-15-------------|
F#|-------------16-15-------------16-15-------|
C#|-------------------------------------------|
G#|-------------------------------------------|
D#|-------------------------------------------|


[Bridge 2]

   both guitars
D#|-----------------------------|------------------------------|
A#|-----------------------------|------------------------------|
F#|-----------------------------|------------------------------|
C#|-----------------------------|------------------------------|
G#|-----------------------------|------------------------------|
D#|-0-0--0-0--0-0-0--0-0--0-0-0-|-0-0--0-0--0-0--0-0-0-0-0-0-0-|
  pm.    .    . .    .    . . .   .    .    .    . .   . . . .   

D#|-----------------------------|---------------------|-----|
A#|-----------------------------|---------------------|-----|
F#|-----------------------------|-------------------7-|-5---|
C#|-----------------------------|----------------5--7-|-5---|
G#|-----------------------------|----------------5--5-|-3---|
D#|-0-0--0-0--0-0-0--0-0--0-0-0-|-0-0--0-0--0-0--3----|-----|
  pm.    .    . .    .    . . .   .    .    . .

D#|-------------------|
A#|-------------------|
F#|-------------------|
C#|-------------------|
G#|-------------------|
D#|-7b8r7-6-5-3-2-1-0-|


[Chorus]

   both guitars
D#|-----------|
A#|-----------|
F#|---------7-|
C#|-5---5---7-|
G#|-5---5---5-|
D#|-3---3-----|

   lead (w/delay)
D#|-----------------------|-----------------------|
A#|-13-12--------------12-|-x-12-------12-x-------|
F#|-------12--------12----|------14-12------14-12-|
C#|-----------------------|-----------------------|
G#|----------15-x-15------|-----------------------|
D#|-----------------------|-----------------------|

D#|-15----14-------17----15-|----14-------------------|-------------------------|-----------------------|
A#|----12----15-12----12----|-12----12-15-12-12-13-12-|-13-12----------------12-|-x-12-------12-x-------|
F#|-------------------------|-------------------------|-------12----------12----|------14-12------14-12-|
C#|-------------------------|-------------------------|-------------------------|-----------------------| 
G#|-------------------------|-------------------------|----------15-x-15--------|-----------------------|
D#|-------------------------|-------------------------|-------------------------|-----------------------|

D#|-15----14-------17----15-|----14-------------------|-19-x-17-15-x-x-20-x-|-19-x-17-x-22-x---------|
A#|----12----15-12----12----|-12----12-15-12-12-13-12-|---------------------|----------------20-19---|
F#|-------------------------|-------------------------|---------------------|------------------------|
C#|-------------------------|-------------------------|---------------------|------------------------|
G#|-------------------------|-------------------------|---------------------|------------------------|
D#|-------------------------|-------------------------|---------------------|------------------------|

   rhythm
D#|-----------------|-----------------|
A#|-----------------|-----------------|
F#|-----------------|-----------------|
C#|-5-5-5-5-5-5-5-5-|---------7-7-7-7-|
G#|-3-3-3-3-3-3-3-3-|---5-5-5-5-5-5-5-|
D#|-----------------|---3-3-3---------|

D#|-----------------|-----------------|-----------------|---------------|
A#|-----------------|-----------------|-----------------|---------------|
F#|-----------------|-----------------|-----------------|---------------|
C#|-----------------|-----------------|-2-2-2-2-2-2-2-2-|-------7-7-7-7-|
G#|-2-2-2-2-2-2-2-2-|---2-2-2-2-2-----|-0-0-0-0-0-0-0-0-|-5-5-5-5-5-5-5-|
D#|-0-0-0-0-0-0-0-0-|---0-0-0-0-0-3-4-|-----------------|-3-3-3---------|
  pm                                                            .   .

D#|-----------------|-------|-----------------|---------------|
A#|-----------------|-------|-----------------|---------------|
F#|-----------------|-------|-5-5-5-5-5-5-5-5-|----5----------|
C#|-----------------|-------|-5-5-5-5-5-5-5-5-|----5-----7--7-|
G#|-2-2-2-2-2-2-2-2-|-------|-3-3-3-3-3-3-3-3-|----3-5-5-5--5-|
D#|-0-0-0-0-0-0-0-0-|-------|-3-3-3-3-3-3-3-3-|----3-3-3------|
  pm. . . . . . .             . . . . . . .

   rhythm:         lead:
D#|-----|--------|------|---------|
A#|-----|--------|------|---------|
F#|-5---|----4-4-|--5---|----4-4*-|
C#|-5---|----4-4-|--5---|----4----|
G#|-3---|----2-2-|--3---|----2----|
D#|-----|--------|------|---------|


[Outro]

   rhythm
D#|--------------------------------|-----------------------------|
A#|--------------------------------|-----------------------------|
F#|--------------------------------|-----------------------------|
C#|--------------------------------|-----5-5-----7p5---8p5---7p5-|
G#|--------------------------------|-5h7-----7-5-----7-----7-----|
D#|-/12\-0-0--0-0--0-0-0--0-0--0-0-|-----------------------------|
  pm     . .  .    ..     .    .         . . . .     .     .     

D#|---------------------------|------------------------| 
A#|---------------------------|------------------------| 
F#|---------------------------|---------------------7*-| 
C#|---------------------------|-9p5---8p5---7p5--------|
G#|---------------------------|-----7-----7-----7-7----|
D#|-0-0--0-0--0-0-0--0-0--0-0-|------------------------|
  pm. .  .    . .    .    .         .     .     . . 

D#|---------------------------|-----------------------------|
A#|---------------------------|-----------------------------|
F#|---------------------------|-----------------------------|
C#|---------------------------|-----5-5-----7p5---8p5---7p5-|
G#|---------------------------|-5h7-----7-5-----7-----7-----|
D#|-0-0--0-0--0-0-0--0-0--0-0-|-----------------------------|
  pm. .  .    . .    .    .         . . . .     .     .         

D#|---------------------------|-----------------------------------|
A#|---------------------------|-------------12p8---11p8---10p8----| 
F#|---------------------------|------------------9------9------9*-|
C#|---------------------------|-9p5---8p5-------------------------|
G#|---------------------------|-----7-----7-----------------------|
D#|-0-0--0-0--0-0-0--0-0--0-0-|-----------------------------------|
  pm. .  .    . .    .    .         .     .      .      .      

   lead
D#|---------------------------|-------------------------------------------|
A#|---------------------------|-------------------------------------------|
F#|---------------------------|-------12-12-------14p12----15p12----14p12-|
C#|---------------------------|-12h14-------14-12-------14-------14-------|
G#|---------------------------|-------------------------------------------|
D#|-0-0--0-0--0-0-0--0-0--0-0-|-------------------------------------------|
  pm. .  .    . .    .    .           .  .  .  .        .        .         

D#|---------------------------|-----------------------------------|
A#|---------------------------|-------------------------------15*-|
F#|---------------------------|-16p12----15p12----14p12-----------|
C#|---------------------------|-------14-------14-------14-14-----|
G#|---------------------------|-----------------------------------|
D#|-0-0--0-0--0-0-0--0-0--0-0-|-----------------------------------|
  pm. .  .    . .    .    .           .        .        .  . 

D#|---------------------------|-------------------------------------------|
A#|---------------------------|-------------------------------------------|
F#|---------------------------|-------12-12-------14p12----15p12----14p12-|
C#|---------------------------|-12h14-------14-12-------14-------14-------|
G#|---------------------------|-------------------------------------------|
D#|-0-0--0-0--0-0-0--0-0--0-0-|-------------------------------------------|
  pm. .  .    . .    .    .           .  .  .  .        .        .        

D#|---------------------------|-----------------------------------------------|
A#|---------------------------|-----------------------------------------------|
F#|---------------------------|-16p12----15p12----16p12----15p12----14p12-----|
C#|---------------------------|-------14-------14-------14-------14-------14*-|
G#|---------------------------|-----------------------------------------------|
D#|-0-0--0-0--0-0-0--0-0--0-0-|-----------------------------------------------|
  pm. .  .    . .    .    .           .        .        .        . 


***********************************

| /   Slide up
| \   Slide down
| h   Hummer-on
| p   Pull-off
| <>  Natural Harmonic
| *   Pinched Harmonic
| x   Dead note
| b   Bend
| r   Bend release
| T   Tap

***********************************

            
            
Suggest correction
Creating personal tab
Creating personal tab
You can edit any tab online and save it as your Personal.

You can edit, replace or remove any tab part or add personal notes – all changes will be seen only by you.

Personal tabs can be accessed anytime from any device, even offline.
Learn more »
comments
print report bad tab
1 comment total.
0 reply
aleksi.karvosen 10 Sep 06, 2016 10:03 AM

oppii arvostaa biisii ihan eri tavalla ku näkee et kuin vaikee se oikeesti on :D

guest
You may want to rate the tab now too:
select rating
Wanna post a correction for this tab? Suggest correction