Oops, an error
Loading. Please wait.

La Fiebre Del Ganador Tab

7 views 3 this week
no commentswrite comment
1 2 3 4 5
3 more votes to show rating
add to favorites
×
Save as Personal and add changes to this tab that will be seen only by you. Learn more ›
×
You can save this tab as Personal to edit and correct it or add notes. All changes will be seen only by you. Learn more »
save as personal
new!
launch autoscroll
font size
0
reset
how to read this tab
guitar tuner
Autoscroll
slow
fast
+/-
esc
set tempo
stop
esta es mi primer tab espero q este
bn cualquier cosa  o correccion mandenla a mi mail

fiebre del ganador

intro

|------------------------------|------------------------------|
|------------------------------|------------------------------|
|------------------------------|------------------------------|
|------------------------------|------------------------------|   (X2)
|----2--3-----------3--2-------|-----2--3-5-//----3--2--------|
|-5-------5--//--5--------5----|--5------------5-------5------|

( // significa hacer slide sobre el diapason es
decir pasar la mano izquierda sobre todo el diapason)


VERSO 1

                                       LA5*
|------------------------------|--------------------------------------|
|------------------------------|--------------------------------------|
|------------------------------|---2-2-2---------------2-2-2----------|
|----------DO5-----------------|---2-2-2---------------2-2-2----------|
|------------------------------|---0-0-0--0-4-2-0------0-0-0-0-4-2-0--|
|------------------------------|--------------------------------------|


DO5

    De nuevo hay risas siniestras en el bar
                       LA5*
    no se de qUE se rien no comparto su humor.
DO5
    sera qUE otra ves tE encuentro fUmando
                       LA#5
    para divulgarlo en mi oido
           LA5
    en mi oido otra ves.


PUENTE (IGUAL QUE INTRO)
|------------------------------|------------------------------|
|------------------------------|------------------------------|
|------------------------------|------------------------------|
|------------------------------|------------------------------|   (X2)
|----2--3-----------3--2-------|-----2--3-5-//----3--2--------|
|-5-------5--//--5--------5----|--5------------5-------5------|


VERSO 2 (IGUAL QUE VERSO 1)


una rata vigila el viejo sillon

ese que adorna el triste camarin

en donde no entra tu ego engordado

de la estrella local de rock and roll

de rock and roll.


estribillo
 __________(X 2)_______________
/
|------------------------------|------------------------------|
|------------------------------|----------5-------------------|
|---7-7--5-5--2-2--------------|--7-7----5----2---------------|
|---7-7--5-5--2-2--------------|--7-7---5-----2---------------|
|---5-5--3-3--0-0--------------|--5-5--3------0---------------|
|------------------------------|------------------------------|


hoy nena no t enojes si salgo con otra del bar

hay quienes tienen la fiebre del ganador.


Solo de guitarra(cuando lo saque entero lo subo)

(la base es la intro)


solo de saxo ( base DO5 LA5)


|--------------------------|------------------------------|
|--------------------------|------------------------------|
|-5--5-7-8--10-8-7-5-7-5---|-5-7-8-10-8-7-5-10--10P8P7--10|
|--------------------------|------------------------------|
|--------------------------|------------------------------|
|--------------------------|------------------------------|


|------------------------------|------------------------------|
|------------------------------|------------------------------|
|-10--12--10--9/7--7-9--10-12v-|------------------------------|
|------------------------------|------------------------------|
|------------------------------|------------------------------|
|------------------------------|------------------------------|

(V= VIBRATO)


estribillo(IGUAL AL ANTERIOR)

hoy nena no t enojes si salgo con otra del bar

hay quienes tienen la fiebre del ganador.


PUENTE (IGUAL QUE INTRO)
|------------------------------|------------------------------|
|------------------------------|------------------------------|
|------------------------------|------------------------------|
|------------------------------|------------------------------|   (X2)
|----2--3-----------3--2-------|-----2--3-5-//----3--2--------|
|-5-------5--//--5--------5----|--5------------5-------5------|

VERSO 3 (IGUAL QUE EL 1)

el sonido cae en su horrenda ilusion

revalsa de acoples para la ocasion

por suerte esta noche no nos toca

mostrar las lentejuelas sobre el tablon sobre el tablon.


ESTRIBILLO(IGUAL A LOS OTROS)

hoy nena no t enojes si salgo con otra del bar

hay quienes tienen la fiebre del ganador.


INTERMEDIO (ACA TOCA ACORDES EN FORMA DE ARPEGIO )

   LA5 X1  RE5 - DO5-LA5 X4


ESTRIBILLO(IGUAL A LOS OTROS)

hoy nena no t enojes si salgo con otra del bar

hay quienes tienen la fiebre del ganador.

FINAL EN DO5

ESPERO Q LES SIRVA Y AGUANTE SANTA
ESQUINA UN SALUDO A LOS CHICOS DE RUIDOS
DEL FOSO Y A LOS DE SIN FILO RNR VAMOS Q PODEMOS
Suggest correction
Give kudos to tab author, rate the tab!
1 2 3 4 5
comments
print report bad tab
guest
Wanna post a correction for this tab? Suggest correction