Oops, an error
Loading. Please wait.

Nos Queremos Morir Bass Tab

47 views 1 this week
no commentswrite comment
1 2 3 4 5
3 more votes to show rating
add to favorites
launch autoscroll
font size
0
reset
guitar tuner
Autoscroll
slow
fast
+/-
esc
set tempo
stop
Help us to improve Ultimate-Guitar.com Take our survey!
×
 Introduccion
|--------------------------------------------------------------------------------------------|
|--------------------------------------------------------------------------------------------|
|-4--4--5--5---------------4--4--5--5---------16s4--4--5--5-----------4--4--5--5-------------|
|-------------5--5--4--4---------------5--5------------------5--5--4--------------5--5--4--4-|


 
 Cuando inicia la voz                                            Solo.....
|-----------------------------|------------------------------|-----------|
|-----9-9-7-----7-7-6-6-4-----|------------------------------|-----------|
|-0-4-------0-4-----------7-4-|------------------------------|-----------|
|-----------------------------|-0-9-7-7-5-0-9-5-5-4-4--2-0-9-|-0-4-9-9-5-|


........................................................................
|-----------------------------------------------------------------------|
|---7-----7-7-6-6-4-----9-9-----7-----7-7-7-7-6-4---9-9-----7-----7-7-6-|
|-----0-4-----------7-4-----------0-4-------------4-----------0-4-------|
|-5-------------------------5-5-------------------------5-5-------------|

todo el solo se toca con una combinacion de slap y chicotazo y una parte en notas muertas
 ......................................................................... 
|---------------------------------------6-6-----------------------------|
|-6-4s6---9-9-----7---------9-9-6s7---------6s7---9-9-----7-----7-7-6-6-|
|-------4-----------0-4s7-7---------4-4---------4-----------0-4---------|
|-------------5-5-------------------------------------5-5---------------|


 ..................................        final
|-----------------------------------|----------------------|
|-4-----9-9-----7-----7-7-6-6-4s6---|----------------------|
|---7-4-----------0-4-------------4-|----------------------|
|-----------5-5---------------------|-0-9-7-5-5-4-2-0-9----|


estos son los tonos identicos, biene el inicio, segunda parte, solo (slap y chicotazo), y el final.
solo tocala al ritmo, tiempo y ordenamiento como va en el cd 

esta tablatura es como si fuera la original
solo te queda tocarla igual 
atte: Bajista de KOT

***************************************************
Suggest correction
Give kudos to tab author, rate the tab!
1 2 3 4 5
comments
print report bad tab
guest
You may want to rate the tab now too:
select rating
Wanna post a correction for this tab? Suggest correction