Oops, an error
Loading. Please wait.

Amore (Sexo) Tab

289 views 3 this week
no commentswrite comment
1 2 3 4 5
2 more votes to show rating
add to favorites
launch autoscroll
font size
0
reset
how to read this tab
guitar tuner
Autoscroll
slow
fast
+/-
esc
set tempo
stop
Help us to improve Ultimate-Guitar.com Take our survey!
×
Esta es con colaboración de Macy Gray.

Intro:

Arpegio: Gm - Cm - D

Guitarr clásica:
e|-------------|
B|-----3-4---3-|
G|-3-5-----5---|
D|-------------|
A|-------------|
E|-------------|

Guitarra eléctrica:
e|-------------------10-----------
B|-------10-10-11-13----13-13b15--
G|----12--------------------------
D|-12-----------------------------
A|--------------------------------
E|--------------------------------

e|----------------10----------------------------|
B|-13-11-13-11-13----11v-11v-11v-11-11----------|
G|-------------------------------------12-10----|
D|-------------------------------------------10-|
A|----------------------------------------------|
E|----------------------------------------------|

(Todo: Gm - Cm - D)
                        (Riff 1)
It?s like the ocean baby
                        (Riff 2)
You make me feel so sexy
                      (Riff 3)
Love so understanding
                        (Riff 4)
For only you I?m waiting
               (Riff 5)
You turn me on
                      (Riff 6)
My love is on and on and
                         (Riff 7)
You touch me makes me crazy
                       (Riff 8)
I feel your body and me

It?s like the ocean at sea
    (Riff 9)
My love is never ending
           (Riff 10)
You and me
         (Riff 11)
It?s like a dream my baby.


*CORO*
(Todo: Gm - D)
   (Riff 12)     (Riff 13)
Amore,       sexo
   (Riff 14)  (Riff 15)
Amore,       my love is on and on and on
   (Riff 12)      (Riff 16)
Amore,       sexo
   (Riff 17)
Amore, my love is on and on.


Gm - Cm - D (x6)

(Todo: Gm - Cm - D)
                            (Riff 18)
It?s like the wind beneath me
                          (Riff 19)
The passion flows so freely
                        (Riff 20)
Close to you I get free
                         (Riff 21)
Whenever you fill my needs
             (Riff 22)
I turn you on
                        (Riff 23)
My love is on and on and

I feel it all in my knees
    (Riff 24)
And I know how good it will be
It?s like the wind beneath me
(Riff 25)
My love is never ending
          (Riff 26)
You and me
           (Riff 27)
It?s like a dream my baby.


*CORO*
(Todo: Gm - D)
      (Riff 28)
Amore,  sexo
(Riff 29)         (Riff 30)
     Amore,  my love is on and on and on
   (Riff 31)      (Riff 32)
Amore,       sexo
   (Riff 33)
Amore, my love is on and on.


Guitarra eléctrica:
e|--------------------|
B|------------6-------|
G|-5s7--5-------8-7---|
D|----------8---------|
A|--------------------|
E|--------------------|

Guitarra clásica:
e|-----------------8-------8-8------------------|
B|---8-10-11-11-10---11-10-----11-11-10-11-10-8-|
G|-7--------------------------------------------|
D|----------------------------------------------|
A|----------------------------------------------|
E|----------------------------------------------|

Guitarra eléctrica:
e|-------------------6-----|
B|-8---------------8---8-8-|
G|---5s7-5s7-5---7---------|
D|-------------------------|
A|-------------------------|
E|-------------------------|

Guitarra clásica:
e|-----------------------------------------------|
B|-----------------6-----------------------------|
G|-7-7---7-8-7-6-7---9-8-7-8-7-5-7-5-------------|
D|-----------------------------------8-7-8-7-5-5-|
A|-----------------------------------------------|
E|-----------------------------------------------|


*SOLO* (Todo: Gm - D)
e|-15----15----15----15-18-17-15-15-15--
B|-18b20-18b20-18b20--------------------
G|--------------------------------------
D|--------------------------------------
A|--------------------------------------
E|--------------------------------------

e|--------------------------------
B|----------------15----15h16h15--
G|-17b19-17-15-17----17-----------
D|--------------------------------
A|--------------------------------
E|--------------------------------

e|----15-17-15h17-15h17-15h17-15h17-18-18-18-20-20b22-20b22-...--
B|-15------------------------------------------------------------
G|---------------------------------------------------------------
D|---------------------------------------------------------------
A|---------------------------------------------------------------
E|---------------------------------------------------------------

e|-20b22-20-18----22r20-18----20-18--
B|-------------20----------20--------
G|-----------------------------------
D|-----------------------------------
A|-----------------------------------
E|-----------------------------------

e|-15-15-15-15>>>>>>>>>>--------------------|
B|----------18b20>>>>>>>--------------------|
G|--------------------------etc..-etc..-:D--|
D|------------------------------------------|
A|------------------------------------------|
E|------------------------------------------|

(Todo: Gm - D)
     (Riff 34)   (Riff 35)
Amore,         sexo
     (Riff 36)        (Riff 37)
Amore,         my love is on and on and on
   (Riff 38) (Riff 39)
Amore,          sexo
   (Riff 40)     (Riff 41)
Amore,        my love is on and on

Amore, sexo
Amore, my love is on and on and on
Amore, sexo
                         Gm
Amore, my love is on and on.


Riffs
-----

Riff 1
e|----------|
B|----------|
G|----------|
D|-10s12-10-|
A|----------|
E|----------|

Riff 2
e|----------------|
B|----------------|
G|------7-5s7-----|
D|-8-10-------8-8-|
A|----------------|
E|----------------|

Riff 3
e|-------------|
B|-8-----------|
G|---5h7-5h7-5-|
D|-------------|
A|-------------|
E|-------------|

Riff 4
e|----------------------|
B|----------------------|
G|---10-8-7-------------|
D|-8--------10-10s12-11-|
A|----------------------|
E|----------------------|

Riff 5
e|-------|
B|-8-----|
G|---7-6-|
D|-------|
A|-------|
E|-------|

Riff 6
e|---------|
B|---------|
G|-7-------|
D|---8-5-5-|
A|---------|
E|---------|

Riff 7
e|------------|
B|------------|
G|-5h7-5h7--5-|
D|------------|
A|------------|
E|------------|

Riff 8
e|----------------|
B|-------11-------|
G|----12----12-12-|
D|-12-------------|
A|----------------|
E|----------------|

Riff 9
e|--------------------|
B|-13-11-13-13b15-11v-|
G|--------------------|
D|--------------------|
A|--------------------|
E|--------------------|

Riff 10
e|----------|
B|-13b15-13-|
G|----------|
D|----------|
A|----------|
E|----------|

Riff 11
e|-------------11------------------|
B|----11-13b15----12v-12v----------|
G|-12---------------------12-10----|
D|------------------------------12-|
A|---------------------------------|
E|---------------------------------|

Riff 12
e|-----------------|
B|-18b120-18b20-15-|
G|-----------------|
D|-----------------|
A|-----------------|
E|-----------------|

Riff 13
e|-------------18-|
B|-18b20-18b20----|
G|----------------|
D|----------------|
A|----------------|
E|----------------|

Riff 14
e|-18b20-18b20-15-|
B|----------------|
G|----------------|
D|----------------|
A|----------------|
E|----------------|

Riff 15
e|-------15-------15-------------------|
B|-18b20----18b20----18-15-------------|
G|-------------------------17-17-15-15-|
D|-------------------------------------|
A|-------------------------------------|
E|-------------------------------------|

Riff 16
e|-------18-18-18h20---------18-|
B|-18-20-------------20v-20v----|
G|------------------------------|
D|------------------------------|
A|------------------------------|
E|------------------------------|

Riff 17
e|----18-20b22v-20b22v-20b22v-20b22v-18-18-18-20-------|
B|-20--------------------------------------------20-20-|
G|-----------------------------------------------------|
D|-----------------------------------------------------|
A|-----------------------------------------------------|
E|-----------------------------------------------------|

Riff 18
e|----------|
B|-13b15-13-|
G|----------|
D|----------|
A|----------|
E|----------|

Riff 19
e|-------10----------|
B|-11-13----11----11-|
G|-------------12----|
D|-------------------|
A|-------------------|
E|-------------------|

Riff 20
e|-13-11-10----------|
B|----------13b15-13-|
G|-------------------|
D|-------------------|
A|-------------------|
E|-------------------|

Riff 21
e|----15-18-15-15v-|
B|-15--------------|
G|-----------------|
D|-----------------|
A|-----------------|
E|-----------------|

Riff 22
e|-15-------------|
B|----15h16h15----|
G|-------------17-|
D|----------------|
A|----------------|
E|----------------|

Riff 23
e|----------------------|
B|-18-16-15----------15-|
G|----------17-15-17----|
D|----------------------|
A|----------------------|
E|----------------------|

Riff 24
e|----------------------------|
B|-13-13-13-13-13-13b15-11-11-|
G|----------------------------|
D|----------------------------|
A|----------------------------|
E|----------------------------|

Riff 25
e|-------------10-11-10h11h10-----------|
B|-------10-11----------------11--------|
G|----12-------------------------12-12v-|
D|-12-----------------------------------|
A|--------------------------------------|
E|--------------------------------------|

Riff 26
e|--------------|
B|-13b15-b15-13-|
G|--------------|
D|--------------|
A|--------------|
E|--------------|

Riff 27
e|----15-18b20-18-18-20-------|
B|-15-------------------20-20-|
G|----------------------------|
D|----------------------------|
A|----------------------------|
E|----------------------------|

Riff 28
e|-------18-------|
B|-20-20----20-20-|
G|----------------|
D|----------------|
A|----------------|
E|----------------|

Riff 29
e|-18b20-b20-15v-/20-|
B|-------------------|
G|-------------------|
D|-------------------|
A|-------------------|
E|-------------------|

Riff 30
e|-------15-------15-48-15----------------|
B|-18b20----18b20----------18-15----------|
G|-------------------------------19r17-15-|
D|----------------------------------------|
A|----------------------------------------|
E|----------------------------------------|


Riff 31
e|-----------15v-15v-|
B|-18b20-b20---------|
G|-------------------|
D|-------------------|
A|-------------------|
E|-------------------|

Riff 32
e|-22r20-18-20-22-18-18v-|
B|-----------------------|
G|-----------------------|
D|-----------------------|
A|-----------------------|
E|-----------------------|

Riff 33
e|----18-20b22-20b22-20b22-20b22-18-18-20-------|
B|-20-------------------------------------20-20-|
G|----------------------------------------------|
D|----------------------------------------------|
A|----------------------------------------------|
E|----------------------------------------------|

Riff 34
e|----13-15-15-15-15s18-|
B|-15-------------------|
G|----------------------|
D|----------------------|
A|----------------------|
E|----------------------|

Riff 35
e|-18b20-18b20-18-15------------|
B|------------------------------|
G|---------------------19r17-15-|
D|------------------------------|
A|------------------------------|
E|------------------------------|

Riff 36
e|----------13-15-15s18-|
B|-15-15-15-------------|
G|----------------------|
D|----------------------|
A|----------------------|
E|----------------------|

Riff 37
e|----18-20-18-20b22-18----18-|
B|-20-------------------20----|
G|----------------------------|
D|----------------------------|
A|----------------------------|
E|----------------------------|

Riff 38
e|----13-15-15-13-15-18-17-|
B|-15----------------------|
G|-------------------------|
D|-------------------------|
A|-------------------------|
E|-------------------------|

Riff 39
e|-20r18-15----------------------------|
B|----------18-15----------------15----|
G|----------------17-15----15-17----15-|
D|----------------------17-------------|
A|-------------------------------------|
E|-------------------------------------|

Riff 40
e|----------13-15-15-|
B|-15-15-15----------|
G|-------------------|
D|-------------------|
A|-------------------|
E|-------------------|

Riff 41
e|----------------18-20b22v-20-20-18-20b22-|
B|-18-20-20-20-20--------------------------|
G|-----------------------------------------|
D|-----------------------------------------|
A|-----------------------------------------|
E|-----------------------------------------|


                   --------
                º-| ¤    ¤ |-º
                º-|  LuïS  |-º
                º-| ¤    ¤ |-º
                          /
                    |    |
        ·===========================·
        | luis_6cuerdas@ |
        ·===========================·

*Si hubiese algún error o alguna duda, escribe al mail o avisa por MSN*
Suggest correction
Give kudos to tab author, rate the tab!
1 2 3 4 5
comments
print report bad tab
guest
You may want to rate the tab now too:
select rating
Wanna post a correction for this tab? Suggest correction