Oops, an error
Loading. Please wait.
We have an official Black Magic Woman tab made by UG professional guitarists. Check out the tab »
×
by Santana
999,071 views 333 this week
54 commentsread comments
1 2 3 4 5
x 231
add to favorites
×
Save as Personal and add changes to this tab that will be seen only by you. Learn more ›
×
You can save this tab as Personal to edit and correct it or add notes. All changes will be seen only by you. Learn more »
launch autoscroll
font size
0
reset
how to read this tab
guitar tuner
edit
Autoscroll
slow
fast
+/-
esc
set tempo
stop
          *Medley: Black Magic Woman/Gypsy Queen (Peter Green/Gabor Szabo)*
                                     Santana
                                     Abraxas
________________________________________________________________________________________

[Black Magic Woman] (Peter Green)


[Intro]

(Organ Tab for Guitar)

e|------------------------------------------|
B|-13h15----13h15----12h15--13h15----13h15--|
G|-------14-------14--------------14--------|
D|------------------------------------------|
A|------------------------------------------|
E|------------------------------------------|

e|------------------------------------------|
B|-13h15----13h15----12h15--13h15----13h15--|
G|-------14-------14--------------14--------|
D|------------------------------------------|
A|------------------------------------------|
E|------------------------------------------|


[Intro] 

(Where the Guitar comes in) (00:10):

e|----------------------------------------|
B|-8p6------------------6h8p6-----8-------|
G|---------7b9b7---------------------9b7--|
D|----------------------------------------|
A|----------------------------------------|
E|----------------------------------------|

e|-5---------------3-----------------5--------------3----------------10-|
B|-----8---6\5---------6---5\3----------8---6\5---------6---5\3-----10--|
G|-----------------------------------------------------------------10---|
D|----------------------------------------------------------------12----|
A|---------------------------------------------------------------12-----|
E|--------------------------------------------------------------10------|


[1st Guitar Solo]

e|------------------------------------------------------------------|
B|-15-13-13b15-10-13b15--r13p10------13b15r13p10--------------------|
G|--------------------------------------------------12b14p10-9------|
D|------------------------------------------------------------------|
A|------------------------------------------------------------------|
E|------------------------------------------------------------------|

e|-------12h13-12-13p12p10----------------------10------------------------|
B|-10-13-------------------13b15r13p10----13b15-----13-10-----------------|
G|------------------------------------------------------------12b14r12p10-|
D|------------------------------------------------------------------------|
A|------------------------------------------------------------------------|
E|------------------------------------------------------------------------|

e|-------10-13-13b15-----15b17r15p13----13-----18b20-\--|
B|----11-----------------------------15-----------------|
G|-12---------------------------------------------------|
D|------------------------------------------------------|
A|------------------------------------------------------|
E|------------------------------------------------------|

e|-10----------------------------------------------------------10\---|
B|-----------------10------------------------------------------10\---|
G|-----14b12p10-12----12--10h12p10-----------------------------10\---|
D|---------------------------------12-10--12-10----------------------|
A|----------------------------------------------12-11-10\8h10--------|
E|-------------------------------------------------------------------|


[Keyboard Solo (Done in D minor)]
                    
                       Dm
Got a black magic woman
                     C
Got a black magic woman
        Dm                                         A#
I gotta black magic woman, got me so blind I can't see

e|----------------------|
B|-----------6--5--3----|
G|-3h5p3-----5--5--3----|
D|----------------------|
A|----------------------|
E|----------------------|

             Dm                 C                                Dm
That she's a black magic woman, tryin' to make a devil out of me
                                Dm
Don't turn your back on me baby

e|-10-10-10-----------10-10----|
B|-10-10-10--8/10-----10-10----|
G|-10-10-10--9/10-----10-10----|
D|-----------------------------|
A|-----------------------------|
E|-----------------------------|

                              C
Don't turn you back on me baby
                     Dm                                               A#
Yes, don't turn your back one me baby, start messin' 'round with your tricks

e|----------------------|
B|-----------6--5--3----|
G|-3h5p3-----5--5--3----|
D|----------------------|
A|----------------------|
E|----------------------|

                Dm                   C                               Dm
Don't turn your back on me baby, you just might pick up my magic sticks


[2nd Guitar Solo]

e|------------------------------13p12p10----------------------|
B|-13b15--15-13---15b13-10---------------13p12p10-------------|
G|------------------------------------------------13p12p10-9--|
D|------------------------------------------------------------|
A|------------------------------------------------------------|
E|------------------------------------------------------------|

e|------------12h13p12p10----------13b15----15b17r15p13-15b17r15-13---18b20\-|
B|------10-13-------------13b15----------------------------------------------|
G|-9h10----------------------------------------------------------------------|
D|---------------------------------------------------------------------------|
A|---------------------------------------------------------------------------|
E|---------------------------------------------------------------------------|

e|-12h13p12p10-12h13p12p10--------------------------------------------------------|
B|-------------------------13b15-15-13-10---------------10----10-13-10------------|
G|----------------------------------------14pbr12p10----10-------------14pbr12p10-|
D|---------------------------------------------------12----12---------------------|
A|--------------------------------------------------------------------------------|
E|--------------------------------------------------------------------------------|

e|--------------------------------------------10--------------------------|
B|-13b15--15b17--13b15-----------------13b15------13-10-------------------|
G|----------------------14pbr12b14----------------------12--14bpr12p10-9--|
D|------------------------------------------------------------------------|
A|------------------------------------------------------------------------|
E|------------------------------------------------------------------------|

e|----------------------------10-----------------10-12-13b15-|
B|-10-13b15--13b15-15b13p10---10--10----------11-------------|
G|--------------------------------10-10----12----------------|
D|-------------------------------------------------------------|
A|-------------------------------------------------------------|
E|-------------------------------------------------------------|

e|-15b17---18b20---20b22-22-------------10---------10---------10-|
B|---------------------------10~-----13------10-13------10-13----|
G|---------------------------------------------------------------|
D|---------------------------------------------------------------|
A|---------------------------------------------------------------|
E|---------------------------------------------------------------|

e|-13p10--13p10-13p10------------------------------------------------------|
B|--------------------13p10-13p10------------------------------------------|
G|--------------------------------10p12-10p12-------------------------9h10-|
D|--------------------------------------------12-10-------------10h12------|
A|-----------------------------------------------------10h11h12------------|
E|-------------------------------------------------------------------------|

e|------------------------------|
B|-----------------------10p8---|
G|----------------9-10--------9-|
D|----------10h12---------------|
A|-10h11h12---------------------|
E|------------------------------|

                         Dm
Got your spell on me baby
                         C
Got your spell on me baby
                  Dm                                      A#
Yes, you got your spell on me baby, turnin' my heart into stone

e|----------------------|
B|-----------6--5--3----|
G|-3h5p3-----5--5--3----|
D|----------------------|
A|----------------------|
E|----------------------|

  Dm                     C                           Dm
I need you so bad, magic woman I can't leave you alone

e|-------------------------------------------------|
B|-8p6------------------6h8p6-----8----------------|
G|---------7b9b7---------------------9b7(feedback)-|
D|-------------------------------------------------|
A|-------------------------------------------------|
E|-------------------------------------------------|

________________________________________________________________________________________


                                Gypsy Queen (Gabor Szabo)


[Intro]

e|-------------------------------------2--------------|
B|-------------------------------------3--------------|
G|-------------------------------------2--------------|
D|-0-----0-----0-----0-----0-----0-----0--(feedback)--|
A|----0-----0-----0-----0-----0-----0-----------------|
E|----------------------------------------------------|

e|-2h3p2-----2-----2h3p2-----2-------0-2/5-----2h3p2p0---2---|
B|--------3--3------------3--3-----3-------------------3-3---|
G|-----------2---------------2---------------------------2---|
D|-----------0---------------0---------------------------0---|
A|-----------------------------------------------------------|
E|-----------------------------------------------------------|

e|-------------------------------------2-----2/---|
B|---3---1-1-1-1-----------------------3----------|
G|-2---2---------0h2-----0-0-----------2----------|
D|----------------------------4-4p2p0--0----------|
A|------------------------------------------------|
E|------------------------------------------------|

e|-10----10----------------10----10----------10----10---------------|
B|----13------13b15r13p10-----13----------------13------13b15r13p10-|
G|----------------------------------14b12p10------------------------|
D|------------------------------------------------------------------|
A|------------------------------------------------------------------|
E|------------------------------------------------------------------|

e|-10----10---------------------------------15------15-b-17----14p10----|
B|----13-------------------------------------------------------------15-|
G|----------14b12p10----------9-----------------------------------------|
D|--------------------12-10-----10-10h12--------------------------------|
A|----------------------------------------------------------------------|
E|----------------------------------------------------------------------|

e|-22--22-22-22-22-22-22-22-22-22-22---22--22-22-22-22-22-22-22-22-22-22-|
B|-----------------------------------------------------------------------|
G|-----------------------------------------------------------------------|
D|-----------------------------------------------------------------------|
A|-----------------------------------------------------------------------|
E|-----------------------------------------------------------------------|

e|-2-----2-----2------0---3---0--2----0---3---0--2----0---3---0--2---|
B|-3-----3-----3------1---3---2--3----1---3---2--3----1---3---2--3---|
G|-2-----2-----2------0---0---2--2----0---0---2--2----0---0---2--2---|
D|-0-----0-----0------0---0---2--2----0---0---2--2----0---0---2--2---|
A|--------------------3---2---0-------3---2---0-------3---2---0------|
E|------------------------3---------------3---------------3----------|

e|-------------------------------------------------------------------------|
B|-------------------------------------------------------------------------|
G|-------------------------------------------------------------------------|
D|-------------------------------------------------------------------------|
A|-5--0-3-5--0-7-5--0-3-5--0-7-5--0-3-5--0-7-5--0-3-5--0-7-5--0-3-5--0-7-5-|
E|-------------------------------------------------------------------------|

e|--------------------------------------0--3--0----------------|
B|--------------------------------------1--3--2----------------|
G|--------------------------------------0--0--2----------------|
D|--------------------------------------2--0--2----------------|
A|-0-3-5--0-7-5--0-3-5--0-7-5--0-3-5----3--2--0-(feedback)-----|
E|-----------------------------------------3-------------------|


***********************************************************************
/  = slide up
\  = slide down
b  = bend
r  = release bend
pbr= pre bend release
p  = pulloff
h  = hammeron
() = optional note
X  = muted string
***********************************************************************

            
            
Suggest correction
Creating personal tab
Creating personal tab
You can edit any tab online and save it as your Personal.

You can edit, replace or remove any tab part or add personal notes – all changes will be seen only by you.

Personal tabs can be accessed anytime from any device, even offline.
Learn more »
comments
print report bad tab
54 comments total. Showing first comments.
+5 reply
sundeepo1 61 Aug 03, 2006 07:15 AM

the chords r crp on here

+3 reply
jellyhead 10 Nov 08, 2006 06:05 AM

brillient! best tab out there!

+5 reply
theguitarman101 10 Nov 25, 2006 12:52 AM

the chords r abit crap but the rest is gd

guest
You may want to rate the tab now too:
select rating
Wanna post a correction for this tab? Suggest correction