Oops, an error
Loading. Please wait.

Dirty Dancing Tab

by Santana
423 views 1 this week
no commentswrite comment
1 2 3 4 5
3 more votes to show rating
add to favorites
launch autoscroll
font size
0
reset
how to read this tab
guitar tuner
×
Best way to learn
"Dirty Dancing"
Autoscroll
slow
fast
+/-
esc
set tempo
stop
Dirty Dancing

Este tab es parte de una canción de música disco esta muy padre, esta muy de moda , y 
es la original, esta versión esta 100% correcta, sale , si tienen dudas contactenme
Esta tab está dedicada con todo mi amor , a mi novia irela......... 
Espero que disfruten la canción y a tocar.

^ = bend , estira la cuerda y regresa
~~= mantener sonando vibrato


-------------------------------16--14-15~~~-------------13~---------------------------
--^16--16-14-16~~~~----14--16--------------------14-16-------16-14-16----14-----------
----------------------------------------------15-----------------------------15-15~~~-
--------------------------------------------------------------------------------------
--------------------------------------------------------------------------------------
--------------------------------------------------------------------------------------


-------------------------------16--14-15~~~-------------13~---------------------------
--^16--16-14-16~~~~----14--16--------------------14-16-------16-14-16----14-----------
----------------------------------------------15-----------------------------15-15~~~-
--------------------------------------------------------------------------------------
--------------------------------------------------------------------------------------
--------------------------------------------------------------------------------------

-------------------------------16--14-15~~~-------------13~---------------------------
--^16--16-14-16~~~~----14--16--------------------14-16-------16-14-16----14-----------
----------------------------------------------15-----------------------------15-15~~~-
--------------------------------------------------------------------------------------
--------------------------------------------------------------------------------------
--------------------------------------------------------------------------------------

-------------------------------16--14-15~~~-------------13~---------------------------
--^16--16-14-16~~~~----14--16--------------------14-16-------16-14-16----14-----------
----------------------------------------------15-----------------------------15-15~~~-
--------------------------------------------------------------------------------------
--------------------------------------------------------------------------------------
--------------------------------------------------------------------------------------

-------------------------------16--14-15~~~-------------13~---------------------------
--^16--16-14-16~~~~----14--16--------------------14-16-------16-14-16----14-----------
----------------------------------------------15-----------------------------15-15~~~-
--------------------------------------------------------------------------------------
--------------------------------------------------------------------------------------
--------------------------------------------------------------------------------------
Suggest correction
Give kudos to tab author, rate the tab!
1 2 3 4 5
comments
print report bad tab
guest
You may want to rate the tab now too:
select rating
Wanna post a correction for this tab? Suggest correction