Oops, an error
Loading. Please wait.

En Aranjuez Con Tu Amor Tab

1,959 views 18 this week
no commentswrite comment
1 2 3 4 5
1 last vote to show rating
add to favorites
launch autoscroll
font size
0
reset
how to read this tab
guitar tuner
×
Best way to learn
"En Aranjuez Con Tu Amor"
Autoscroll
slow
fast
+/-
esc
set tempo
stop
La canción está en Cm. Saludos, practiquen bastante.

e|------------------------------------------------------------------------
B|------------------------------------------------------------------------
G|-----------------5------------------5-7---------------------------------
D|-5-3-5.--5-5-6-8---8-6-5---5.-5-6-8-----8-6/-6-5-5--------------5/6-5---
A|-------------------------8-------------------------8-8-6-8.-6/8-------8-
E|------------------------------------------------------------------------

e|--------------------------------------------|
B|--------------------------------------------|
G|--------------------------------------------|
D|-----5/6/5---5.-----------------------------|
A|-6/8-------8------5--6--8--6/8.--6-5-5-3-3.-|
E|--------------------------------------------|

e|---------------6-8-6------------------8-10------------------------
B|-8-6-8..-8-8-9-------9-8-6-8..-8-9-11------11-9/-9-8--------------
G|-----------------------------------------------------10-10/8-10.--
D|------------------------------------------------------------------
A|------------------------------------------------------------------
E|------------------------------------------------------------------

e|-----------------------------------------------------------------|
B|------8-9-8---------8----8..-------------------------------------|
G|-8-10-------10-8/10---10-----------7.-8.-10-8/10..-8-7-5/7-5-5..-|
D|-----------------------------10-10-------------------------------|
A|-----------------------------------------------------------------|
E|-----------------------------------------------------------------|

e|------------------10-10/11.-11-10--------9/10-10-8-8---------------
B|-13-11-13..-13-13-----------------11-11.-------------11-11-9-9-11--
G|-------------------------------------------------------------------
D|-------------------------------------------------------------------
A|-------------------------------------------------------------------
E|-------------------------------------------------------------------

e|-8/10/8------8.---------------------------------------
B|--------(11)----11-9-8-9+-8-9-8-----------------------
G|--------------------------------10-8-10+-8-10-8-10..--
D|------------------------------------------------------
A|------------------------------------------------------
E|------------------------------------------------------

e|---------------------------------------------------------------------|
B|------8-9-8---------8----8..-----------------------------------------|
G|-8-10-------10-8/10---10-----------7-8-10-8/10..-8-7-5/7-5.---5/7-5--|
D|-----------------------------10-10--------------------------5--------|
A|---------------------------------------------------------------------|
E|---------------------------------------------------------------------|

	   |-----Aquí responde otra guitarra----|
e|-------------------------------------3-4-3---3---------------------------
B|------------------3-4-3-4.-4-4-3-4-6-------6-----------------------------
G|----------------5---------------------------------------3-5-3------------
D|-5-3-5..----3-5-----------------------------------5-5-6-------6-5-3-5..--
A|----------6--------------------------------------------------------------
E|-------------------------------------------------------------------------

  |-----Aquí responde otra guitarra----|
e|------------------------------------------------------------------------
B|----------------6-------------6-6---6/8.--------------------------------
G|-8/7-5---5-7-8.---8-7-8-8-8-8-----8-------------5-7---------------------
D|-------8---------------------------------5-6-8------8-6-6-5-5-----------
A|--------------------------------------------------------------8-8-6-8..-
E|------------------------------------------------------------------------

  |------Aquí responde otra guitarra-----|
e|-------8----------8-----------------------------------------------------
B|-8/9..---9-9.-8-9---9-8-9-8-6/8-6---------------------------------------
G|----------------------------------8-8./10-------------------------------
D|-----------------------------------------------5/6-5-------5/6/5----5..-
A|-------------------------------------------6/8-------8-6/8-------8------
E|------------------------------------------------------------------------

  |----------------Aquí responde otra guitarra----------------|
e|---------------------------------------------11-11-14/13/11-----
B|-11..-9-8-9-8----8---------------13----11/13----------------13--
G|--------------10---10-8-10/12-12----12--------------------------
D|----------------------------------------------------------------
A|----------------------------------------------------------------
E|----------------------------------------------------------------

  |----------------------Aquí responde otra guitarra------------------|
e|-14/13/11----13/15-13/15.-13/15.-13/15.-15-15...-15/13-11-13-13-11-11.--
B|----------13------------------------------------------------------------
G|------------------------------------------------------------------------
D|------------------------------------------------------------------------
A|------------------------------------------------------------------------
E|------------------------------------------------------------------------

 		    |----Aquí responde otra guitarra----|
e|-------------------------------------------------------
B|---------------11/13.-13-11/13-13-11/13-13-11/13-13..--
G|-------------------------------------------------------
D|-------------------------------------------------------
A|-6-5-3/5-3-3..-----------------------------------------
E|-------------------------------------------------------

	    |---Aquí responde otra guitarra---|
e|-------------------------------------------------------8---------------
B|-8-6-8.------------8-8----8.-8-8-8-8----------8-8-9-11---11-9-8----8.--
G|---------8-8-8-10.-----10------------10-8-8.--------------------10-----
D|-----------------------------------------------------------------------
A|-----------------------------------------------------------------------
E|-----------------------------------------------------------------------

  |---------------------Aquí responde otra guitarra-----------------------|
e|-----------11--------------------------11-11-----------------------------
B|-11/13.-13----13/-11/13-13-11/13-13-13-------13-11-13--------------------
G|------------------------------------------------------10/12-10-8-10-8----
D|----------------------------------------------------------------------10-
A|-------------------------------------------------------------------------
E|-------------------------------------------------------------------------

e|--------8-10-----------------------------
B|-8-9-11------11-9--9/8-8-----------------
G|-------------------------10-10-10-8-10.--
D|-----------------------------------------
A|-----------------------------------------
E|-----------------------------------------

  |------------Aquí responde otra guitarra-----------|
e|-13..-11.----11---------------------------------------|
B|----------13----13-11-13-----------------8------------|
G|-------------------------10/12-10-8-10-8---8----8-10--|
D|---------------------------------------------10-------|
A|------------------------------------------------------|
E|------------------------------------------------------|

e|-----------------------------
B|------8-9-8---------8----8.--
G|-8-10-------10-8-10---10-----
D|-----------------------------
A|-----------------------------
E|-----------------------------

  |------------Aquí responde otra guitarra-----------|
e|------------------------------------------------------|
B|------8-9-8-10+-8-9-8-10+-8-9-8-10+-8-9-8-10+--etc..--|
G|-8-10-------------------------------------------------|
D|------------------------------------------------------|
A|------------------------------------------------------|
E|------------------------------------------------------|

  				 |---Aquí responde otra guitarra--|
e|------------------------15...-15/13-13-11-13-13-13-11.--|
B|-----------------8--------------------------------------|
G|-------7-8-10-10---10.----------------------------------|
D|-10-10--------------------------------------------------|
A|--------------------------------------------------------|
E|--------------------------------------------------------|

  		   |----------------Aquí responde otra guitarra---------------|
e|---------------------------------11-11-11-11-11--------------------------
B|-------------13..-13--------12/13--------------13/-13-11--11-------------
G|-8-7-7-5-5.----------10-8-------------------------------12--12-12-10-----
D|-------------------------10-----------------------------------------13-10
A|-------------------------------------------------------------------------
E|-------------------------------------------------------------------------

e|------------------10-11+-11-11-10-11-10---------
B|-13-11-13..-13-13-----------------------11-11.--
G|------------------------------------------------
D|------------------------------------------------
A|------------------------------------------------
E|------------------------------------------------

e|-9/10.-10-8-8----------------8-10-8--8-10-8--8--
B|--------------11-11-9-9-11-11------11------11---
G|------------------------------------------------
D|------------------------------------------------
A|------------------------------------------------
E|------------------------------------------------

e|---------------------------------------------------------------------
B|-11-9-8-9/11-9-8-9-8-9-8----------------------8-9-8---------8----8..-
G|-------------------------10-8-10-8-10.---8-10-------10-8-10---10-----
D|---------------------------------------------------------------------
A|---------------------------------------------------------------------
E|---------------------------------------------------------------------

e|---------------------------------------------
B|---------------------------------------------
G|-------7-8-10-8/10.-10/12-10--8-7-8/7-5-5..--
D|-10-10---------------------------------------
A|---------------------------------------------
E|---------------------------------------------


     MaKe SoMeBoDy HaPPy
 ·=========================·
 |   ;)  ¤«L·u·ï·S»¤  :)   |
 | luis_reque@  |
 ·=========================·
Suggest correction
Give kudos to tab author, rate the tab!
1 2 3 4 5
comments
print report bad tab
guest
You may want to rate the tab now too:
select rating
Wanna post a correction for this tab? Suggest correction