Oops, an error
Loading. Please wait.

Gipsy Queen Bass Tab

147 views 3 this week
no commentswrite comment
1 2 3 4 5
3 more votes to show rating
add to favorites
launch autoscroll
font size
0
reset
guitar tuner
Autoscroll
slow
fast
+/-
esc
set tempo
stop
Help us to improve Ultimate-Guitar.com Take our survey!
×
Bass
                                                                    
G||-------------------|------------------|-------------------------|
D||-------------------|------------------|---------------------2-2-|
A||--5----------------|------------------|--5--------3--5----------|
E||-------------------|------------------|-------5---------5-------|


                                                                           
------------------------|------------------------|------------------------|
---------------------2--|---------------------2--|---------------------2--|
--5--------3--5---------|--5--------3--5---------|--5--------3--5---------|
-------5---------5------|-------5---------5------|-------5---------5------|


                                                                           
------------------------|------------------------|------------------------|
---------------------2--|---------------------2--|---------------------2--|
--5--------3--5---------|--5--------3--5---------|--5--------3--5---------|
-------5---------5------|-------5---------5------|-------5---------5------|


                                                                           
------------------------|------------------------|------------------------|
---------------------2--|---------------------2--|---------------------2--|
--5--------3--5---------|--5--------3--5---------|--5--------3--5---------|
-------5---------5------|-------5---------5------|-------5---------5------|


                                                                           
------------------------|------------------------|------------------------|
---------------------2--|---------------------2--|---------------------2--|
--5--------3--5---------|--5--------3--5---------|--5--------3--5---------|
-------5---------5------|-------5---------5------|-------5---------5------|


                                                                           
------------------------|------------------------|------------------------|
---------------------2--|---------------------2--|---------------------2--|
--5--------3--5---------|--5--------3--5---------|--5--------3--5---------|
-------5---------5------|-------5---------5------|-------5---------5------|


                                                                           
------------------------|------------------------|------------------------|
---------------------2--|---------------------2--|---------------------2--|
--5--------3--5---------|--5--------3--5---------|--5--------3--5---------|
-------5---------5------|-------5---------5------|-------5---------5------|


                                                                           
------------------------|------------------------|------------------------|
---------------------2--|---------------------2--|---------------------2--|
--5--------3--5---------|--5--------3--5---------|--5--------3--5---------|
-------5---------5------|-------5---------5------|-------5---------5------|


                                                                           
------------------------|------------------------|------------------------|
---------------------2--|---------------------2--|---------------------2--|
--5--------3--5---------|--5--------3--5---------|--5--------3--5---------|
-------5---------5------|-------5---------5------|-------5---------5------|


                                                                           
------------------------|------------------------|------------------------|
---------------------2--|---------------------2--|---------------------2--|
--5--------3--5---------|--5--------3--5---------|--5--------3--5---------|
-------5---------5------|-------5---------5------|-------5---------5------|


                                                                           
------------------------|------------------------|------------------------|
---------------------2--|---------------------2--|---------------------2--|
--5--------3--5---------|--5--------3--5---------|--5--------3--5---------|
-------5---------5------|-------5---------5------|-------5---------5------|


                                                                           
------------------------|------------------------|------------------------|
---------------------2--|---------------------2--|---------------------2--|
--5--------3--5---------|--5--------3--5---------|--5--------3--5---------|
-------5---------5------|-------5---------5------|-------5---------5------|


                                                                         
------------------------|------------------------|----------------------|
---------------------2--|---------------------2--|-------------------0--|
--5--------3--5---------|--5--------3--5---------|--3------2------0-----|
-------5---------5------|-------5---------5------|----------------------|


                                                             
------------------|----------------------|------------------|
------------------|-------------------0--|------------------|
------------------|--3------2------0-----|------------------|
------------------|----------------------|------------------|


                                                                    
----------------------|------------------|-------------------------|
-------------------0--|------------------|---------------------2-2-|
--3------2------0-----|------------------|--5--------3--5----------|
----------------------|------------------|-------5---------5-------|


                                                                              
-------------------------|-------------------------|-------------------------|
---------------------2-2-|---------------------2-2-|---------------------2-2-|
--5--------3--5----------|--5--------3--5----------|--5--------3--5----------|
-------5---------5-------|-------5---------5-------|-------5---------5-------|


                                                                              
-------------------------|-------------------------|-------------------------|
---------------------2-2-|---------------------2-2-|---------------------2-2-|
--5--------3--5----------|--5--------3--5----------|--5--------3--5----------|
-------5---------5-------|-------5---------5-------|-------5---------5-------|


                                                                    
-------------------------|---------------------|------------------||
---------------------2-2-|---------------------|------------------||
--5--------3--5----------|--3------2-----------|------------------||
-------5---------5-------|----------------5----|------------------||


Espero le echen mas ganas los bajistas porque nos estamos quedando abajo
espero y les guste mi tab 
los veo alrato y algun tab en ingles u algun otro de santana tratare de complacerlos
gracias al aaron por entrarle al grupo y al beto y victor por hacre el paro de nuevo
PARA TODAS LAS DAMAS
Suggest correction
Give kudos to tab author, rate the tab!
1 2 3 4 5
comments
print report bad tab
guest
You may want to rate the tab now too:
select rating
Wanna post a correction for this tab? Suggest correction