Oops, an error
Loading. Please wait.

Gitano Tab

2,134 views 24 this week
no commentswrite comment
1 2 3 4 5
3 more votes to show rating
add to favorites
launch autoscroll
font size
0
reset
how to read this tab
guitar tuner
Autoscroll
slow
fast
+/-
esc
set tempo
stop
Help us to improve Ultimate-Guitar.com Take our survey!
×
Este es un buen tema de Carlos Santana, cantado por el gran Armando Peraza!


Intro: E

e|--------------------------------------------------
B|-5-6-5-6-5-5---5----------------------------------
G|-------------7---7-7-5-7-5-5-4-5-4-4-5---4--------
D|---------------------------------------7---7-7..--
A|--------------------------------------------------
E|--------------------------------------------------

e|-----------------------------------
B|-----------------------------------
G|-----------2-4/5/4-2---------------
D|-5-5-3-3-5-----------5-4-2.----3.--
A|-----------------------------2-----
E|-----------------------------------

e|-----------------------------------------------------------------
B|-----------------------------------------------------------------
G|-----------------------------------------------------------------
D|-2-3-2-----2-----------------------------------------------------
A|-------5-3---5-3-2-5-3-2---3-2---------0-2/3-0-2/3-0-2/3-0-..-2--
E|-------------------------5-----5-3-1-3---------------------------

                      |-E-|
e|----------------------0----
B|----------------------0----
G|----------------------1----
D|----------------------2----
A|-2-0-----0..----------2----
E|-----3-1-----3-1-0.---0----

e|------------------------------------------
B|------------------------------------------
G|---2-2-2-5-5-4-------4-7-5/7/5-4----------
D|-2-------------5-5---------------7-6-8-6--
A|------------------------------------------
E|------------------------------------------

e|-----------------------------------------------
B|---------------------------------3-5-6.-6.-6.--
G|---------------------------2-4-5---------------
D|---------------------2-3-5---------------------
A|---------2-3-5-3-5-5---------------------------
E|-0-1-3-5---------------------------------------

                                                 |-E-|
e|-------------------------------------------------0---
B|-5-5---5-----------------------------------------0---
G|-----7---5-7-4-5-7-7-7-5-5-4-4-------4-----------1---
D|-------------------------------7-7-5---7-5-------2---
A|-------------------------------------------8-7---2---
E|-------------------------------------------------0---

F - E


Am - G (x6)
Am (2 golpes) - C - Am - G - Am

Am               G
Vengo de tierra lejana
                       Am   Am - G - F - E
con mi guitarra en la mano  (Riff 1)


Am                G
Tengo notas de cariño
      F            E
para todos mis hermanos.


Am         G            Am
Goza como gozo yo....amigo
Am         G           Am
goza como gozo yo....amigo
Am         G           Am
goza como gozo yo....amigo
Am         G           Am
goza como gozo yo....amigo.


Am - G - C
e|-------------------------------------------
B|--------------------------------5----------
G|-----5-4----------------------4---7-4------
D|---7-----5-7-5------------5-7---------7-5--
A|-7------------8-7---5-7-8------------------
E|-------------------------------------------

Am - G - F - E
e|----------------------------------------------------------------|
B|----------------------------------------------------------------|
G|----------------------------------------------------------------|
D|--7-7-6-9-7---5-5-4-7-5---3-3-2-5-3-----------------------------|
A|-7-----------5-----------3-------------0-3-2-0-----------2-3-0.-|
E|-------------------------------------0---------4-0.--0-4--------|


Am - D [x3] - Am (dos golpes) - C - Am - G - Am

Am - G - Am
e|---5-5-5-8-8-7.--7-10-8-7-5/7-4-7-5.-|
B|-5-----------------------------------|
G|-------------------------------------|
D|-------------------------------------|
A|-------------------------------------|
E|-------------------------------------|


Am                G
Tengo notas de cariño
      F            E
para todos mis hermanos.
Am               G
Vengo de tierra lejana
                       Am   Am - G - F - E
con mi guitarra en la mano. (Riff 2)


Am         G            Am
Goza como gozo yo....amigo
Am         G           Am
Goza como gozo yo....amigo
Am         G           Am
Goza como gozo yo....amigo
Am         G           Am
Goza como gozo yo....amigo.


Am - G - C
e|-------------------------------------------
B|--------------------------------5----------
G|-----5-4----------------------4---7-4------
D|---7-----5-7-5------------5-7---------7-5--
A|-7------------8-7---5-7-8------------------
E|-------------------------------------------

Am - G - F - E
e|----------------------------------------------------------------|
B|----------------------------------------------------------------|
G|----------------------------------------------------------------|
D|--7-7-6-9-7---5-5-4-7-5---3-3-2-5-3-----------------------------|
A|-7-----------5-----------3-------------0-3-2-0-----------2-3-0.-|
E|-------------------------------------0---------4-0.--0-4--------|


Am - D (x4) - Am


(Congas)


Am         G            Am
Goza como gozo yo....amigo
Am         G           Am
goza como gozo yo....amigo
Am         G           Am
goza como gozo yo....amigo
Am         G           Am
goza como gozo yo....amigo.


Am              G             Am
Al llegar a Puerto Rico... amigo
Am              G             Am
me creía que era rico... amigo
Am              G             Am
y al cruzar por una sierra...bongó
Am              G             Am
visité a Rio Piedra... amigo
Am              G             Am
el día que yo me muera... amigo
Am              G             Am
yo tengo que hir a la gloria
Am              G             Am
porque quisé mucho a mi novia... amigo
Am              G             Am
entré a la puerta de una iglesia... amigo
Am              G             Am
y yo me puse a rezar... amigo
Am              G             Am
para consolar mis penas... amigo
Am              G             Am
yo vi una linda morena... amigo.


Am - G - F - E


Am         G             Am
Goza como gozo yo....amigo
Am         G             Am
Goza como gozo yo....Armando

Am - G - Am
  ... Armando   (x8)


Am         G             Am
Goza como gozo yo... amigo
Am         G             Am
Goza como gozo yo... ¿?


Am - G (hasta terminar)


Riffs
-----

Riff 1
e|--------------------------------
B|--------------------------------
G|--------------------------------
D|--------------------------------
A|-0-0-0-3-3-2---0-2-0-----0------
E|-------------3-------1-3---4-0--

e|---5-5-5-8-8-7.-7-10-8-7-5/7-4-7-5.-|
B|-5----------------------------------|
G|------------------------------------|
D|------------------------------------|
A|------------------------------------|
E|------------------------------------|

Riff 2
e|-------------------------------|
B|-------------------------------|
G|-------------------------------|
D|-------------------------------|
A|-0-0-0-3-3-2---0-2-0-----0-----|
E|-------------3-------1-3---4-0-|


                   --------
                º-| ¤    ¤ |-º
                º-|  LuïS  |-º
                º-| ¤    ¤ |-º
                          /
                    |    |
        ·===========================·
        | luis_6cuerdas@ |
        ·===========================·

*Si hubiese algún error o alguna duda, escribe al mail o avisa por MSN*
Suggest correction
Give kudos to tab author, rate the tab!
1 2 3 4 5
comments
print report bad tab
guest
You may want to rate the tab now too:
select rating
Wanna post a correction for this tab? Suggest correction