Oops, an error
Loading. Please wait.

Guajira bass

version 2
version 2

Whole song

by Santana
49 views 1 this week
2 commentsread comments
1 2 3 4 5
3 more votes to show rating
add to favorites
×
Save as Personal and add changes to this tab that will be seen only by you. Learn more ›
×
You can save this tab as Personal to edit and correct it or add notes. All changes will be seen only by you. Learn more »
launch autoscroll
font size
0
reset
guitar tuner
edit
Autoscroll
slow
fast
+/-
esc
set tempo
stop
Author
Difficulty
Guajira - Santana
Album: SACRED FIRE (1979) 
Tuning: Standard – Key of A major

INTRO: 
G|------------------------------||-  
D|------------------------------||- 
A|----------7-------------------||- x4
E|-0-3-4-5----8r--5-6-7--3-0----||-  


CHORUS1: 00:14
(Higher tone)
G|---9------------||----10--9----|  |-------------|-
D|-7---10--7-8-9r-||-9r-------10-|  |-7-7--5------|-
A|----------------||-------------|x3|--------8-7r-|-
E|----------------||-------------|  |-------------|-
Vamonos guajira
Vamos a bailar
Vamonos guajira

Vamos a bailar


VERSE1: 00:29
(Lower tone)
G|---9------------||----10--9----|- 
D|-7---10--7-8-9r-||-10-------10-|- 
A|----------------||-------------|- x4
E|----------------||-------------|-  
Que lo que quiere guajira
Si tu quieres bailar.
Yo te a garro la mano
Y vamos a bailar.


CHORUS2: 00:44
(Higher tone)
G|---9------------||----10--9----|  |-------------|-
D|-7---10--7-8-9r-||-9r-------10-|  |-7-7--5------|-
A|----------------||-------------|x3|--------8-7r-|-
E|----------------||-------------|  |-------------|-
Vamonos guajira
Vamos a bailar (si cariño)
Vamonos guajira

Vamos a bailar


VERSE2: 00:59
(Lower tone)
G|---9------------||----10--9----|- 
D|-7---10--7-8-9r-||-10-------10-|- 
A|----------------||-------------|- x4
E|----------------||-------------|-  
Que lo que quiere guajira
Si tu quieres bailar
Ben be len ben be len ben be len ben
Y vamos a gozar.

CHORUS3: 01:13
(Higher tone)
G|---9------------||----10--9----|  |-------------|-
D|-7---10--7-8-9r-||-9r-------10-|  |-7-7--5------|-
A|----------------||-------------|x3|--------8-7r-|-
E|----------------||-------------|  |-------------|-
Vamonos guajira
Vamos a bailar (si cariño)
Vamonos guajira

Vamos a bailar
G|-----------------||
D|-----------------||
A|-----------------||
E|-5-5-5-5-5-5-5-5-||

                                        ** PAUSE... **
SOLO1: 01:31
G|-------------------------|- 
D|-------------------------|-  
A|---7----------------8-7--|- x8
E|-5---8r--8-7--7--7r------|- 
        
 MIDDLE 8: 02:00 (piano)
G|-----9-------------10-9-||- 
D|---7-----7--9-9--9------||-          
A|-7----------------------||- X5 
E|------------------------||-
Te quiero . . . Guajira . . .
Te quiero . . . Guajira . . .
Te quiero . . . Guajira . . .
Te quiero . . . Guajira . . .
Te quiero . . . Guajira . . .

G|-----------------|-
D|-7-7-7-7-7-7-7-7-|-
A|-----------------|-
E|-5-5-5-5-5-5-5-5-|-

>> Solo2
SOLO2: 02:18
G|-----9-------------10-9-||- 
D|---7-----7--9-9--9------||-          
A|-7----------------------||- XXXXX       
E|------------------------||-

FAST SOLO: 03:45
G|--------2------|---------------|- 
D|------2----3-2-|-3-2-----------|-  
A|---3-----------|-----3-2-3-----|- xxxx
E|-5-------------|-----------(5)-|-  


Reprise: 04:53
(Higher tone)
G|---9------------||----10--9----|  |-------------|-
D|-7---10--7-8-9r-||-9r-------10-|  |-7-7--5------|-
A|----------------||-------------|x3|--------8-7r-|-
E|----------------||-------------|  |-------------|-


CHORUS4: 05:08
(Higher tone)
G|---9------------||----10--9----|  |-------------|-
D|-7---10--7-8-9r-||-9r-------10-|  |-7-7--5------|-
A|----------------||-------------|x3|--------8-7r-|-
E|----------------||-------------|  |-------------|-
Vamonos guajira
Vamos a bailar (si cariño)
Vamonos guajira


FAST SOLO2: 05:22
G|--------2------|---------------|- 
D|------2----3-2-|-3-2-----------|-  
A|---3-----------|-----3-2-3-----|- xxxx
E|-5-------------|-----------(5)-|-  


End: 06:14



            
            
Suggest correction
Creating personal tab
Creating personal tab
You can edit any tab online and save it as your Personal.

You can edit, replace or remove any tab part or add personal notes – all changes will be seen only by you.

Personal tabs can be accessed anytime from any device, even offline.
Learn more »
Give kudos to tab author, rate the tab!
1 2 3 4 5
comments
print report bad tab
2 comments total.
0 reply
Bruno Frenchy 4,686 Mar 27, 2017 01:12 PM, edited on April 3 2017, 11:02 am

Some "finger issues" in other versions though presenting a good rendition of the song... This tab might help to get it quicker... Enjoy and rate.. Thanks

0 reply
sheila scotty 16 Apr 12, 2017 02:42 AM

Great tab as usual Mister. Thanks.

guest
You may want to rate the tab now too:
select rating
Wanna post a correction for this tab? Suggest correction