Oops, an error
Loading. Please wait.

Guru Song Tab

360 views 6 this week
no commentswrite comment
1 2 3 4 5
3 more votes to show rating
add to favorites
launch autoscroll
font size
0
reset
how to read this tab
guitar tuner
Autoscroll
slow
fast
+/-
esc
set tempo
stop
Help us to improve Ultimate-Guitar.com Take our survey!
×
   I Parte                               
E-----------------------------------------------------------------------------------------------------------
B----------10--------10-----------------------------7-----------------------------------------------------
G-----11-------11--------9^`11--9-------7---9------9--7-7------------------7?7?7-9-7-9--------
D-----------------------------------------------------------------9h------7--9----------------------------
A-----------------------------------------------------------------------------------------------------------
E-----------------------------------------------------------------------------------------------------------

E---------------------/--------------------------------------------9--7-------------------------------------
B---------------------/-------------------9--10--10---9--10-----------10--9?7h----------------------
G---------------------/-------------------------------------------------------------------------------------
D---11--9-^-11h---/----X2------------------------------------------------------------------------------  
A---------------------/-------------------------------------------------------------------------------------
E----------------------/-------------------------------------------------------------------------------------

E-------------------------------------------------------------9--7--9--10-9-5^7?5^7-5---------------
B-------------------------7----7h------9--10--10--9-10h---------?---------------------7-5----------
G----7--7?7^9--7--9----9------------------------------------------------------------------------------
D-----------------------------------------------------------------------------------------------------------
A-----------------------------------------------------------------------------------------------------------
E-----------------------------------------------------------------------------------------------------------

E------5-5----------10-10----14?12h----------------------------/-------------------------------------
B-5^7------10^12--------------------------------------------------/------10-----10---------------------
G--------------------------------------------- I PARTE....x 1--/--11-----11-----9^11----9--------
D---------------------------------------------------------------------/-------------------------------------
A---------------------------------------------------------------------/-------------------------------------
E---------------------------------------------------------------------/--------------------------------------


E----------------------------/
B-------7-----------12h----/
G--7-9----9-7-7-----------/        BUENO ESTO ES TODO LO QUE PUEDO ESCRIBIR 
D---------------------------/         CREO QUE CON ESTO LA  
A---------------------------/      COMENTARIO O SUGERENCIA ESCRIBA A
E---------------------------/        atila8m@ envío la segunda parte
Suggest correction
Give kudos to tab author, rate the tab!
1 2 3 4 5
comments
print report bad tab
guest
You may want to rate the tab now too:
select rating
Wanna post a correction for this tab? Suggest correction