Oops, an error
Loading. Please wait.

I Don' T Wanna Lose Your Love Tab

by Santana
128 views 1 this week
no commentswrite comment
1 2 3 4 5
3 more votes to show rating
add to favorites
launch autoscroll
font size
0
reset
how to read this tab
guitar tuner
×
Best way to learn
"I Don' T Wanna Lose Your Love"
Autoscroll
slow
fast
+/-
esc
set tempo
stop
Esta es una buena canción de Carlos Santana y Los Lonely Boys.
Échele mi Carlitos!!

Intro: C#m - F#m - A - C#m (x2)

e|---------------------------------------------------
B|----------------------------------------12---------
G|-11/13.-11---------------------------------11/13.--
D|-----------14-13-14----11/13.-11-14--14------------
A|--------------------11-----------------------------
E|---------------------------------------------------

e|--------------------------------------|
B|--------------------------------------|
G|-11-----------------------------------|
D|----14-13-14----11/13-----------------|
A|-------------11-------11-13/14-13-11--|
E|--------------------------------------|

C#m
If you don't love me baby let me know
               F#m
cause you?re breaking my heart
                        C#m
And it hurts me so (Riff 1)
playin' these games and messin' with my mind
               F#m                    C#m            A - Ab
girl you made me believe you were only mine (Riff 2)

*Coro:
C#m                     F#m
I don't wanna lose your love oh oh
A                    C#m
  I guess I have to let you go
C#m                     F#m
I don't wanna watch you leave oh oh
A                    C#m
  I guess I have to walk away.

Intro

C#m
Girl you said you loved me and you'd never go
           F#m                                  C#m
you were lyin' to me you thought I'd never know (Riff 3)
C#m
I just wanna tell you girl before I go
                     F#m                      C#m        A
take a good look at me I won't look back no more (Riff 4)


C#m                     F#m
I don't wanna lose your love oh oh
A                    C#m
  I guess I have to let you go
C#m                     F#m
I don't wanna watch you leave oh oh
A                    C#m
  I guess I have to walk away. (Riff 5)
C#m                     F#m
No quiero perder tu amor, oh oh
A              C#m
pero te voy a dejar ir
C#m                F#m
no quiero mirarte ir, oh oh
A                  C#m
voy a tener que andar de aqui.


Solo: C#m - F#m - A - C#m (x4)
e|-------9------9-----9-----9-----9--11/12-11/12/11-----------
B|-----9---<12>---<12>--<12>--<12>------------------14-12-14--
G|--9---------------------------------------------------------
D|-<11>-------------------------------------------------------
A|------------------------------------------------------------
E|------------------------------------------------------------

e|--------------------------------------------------------
B|-14-12-14-12------------------14-<17>-<17>-14-14...-17--
G|-------------13-<11>-11-9-------------------------------
D|--------------------------11----------------------------
A|--------------------------------------------------------
E|--------------------------------------------------------

e|-14/16-------13-----------12-11/12/11----------------------
B|-------17-17----17-16-13-------------14-12---<11>/11-9-----
G|------------------------------------------13-----------11--
D|-----------------------------------------------------------
A|-----------------------------------------------------------
E|-----------------------------------------------------------

e|-----------------------14/16-19-16---19-16---19-16--19-16----
B|--2---4---5---7---9---------------14------14------14-----14--
G|-<4>-<6>-<7>-<9>-<11>----------------------------------------
D|-------------------------------------------------------------
A|-------------------------------------------------------------
E|-------------------------------------------------------------

e|-19-16-19-16-19-16-19-<19>...-<19>/-<19>/-<19>/--<19><19><19>/--
B|----------------------------------------------------------------
G|----------------------------------------------------------------
D|----------------------------------------------------------------
A|----------------------------------------------------------------
E|----------------------------------------------------------------

e|-16----16-16-16-16-16-16----------------------------------11-12-11.--
B|----19----17-17-17-17-17-17-17/16-14----------14-12-12/14------------
G|-------------------------------------11/13-14------------------------
D|---------------------------------------------------------------------
A|---------------------------------------------------------------------
E|---------------------------------------------------------------------

(C#m - F#m - A - C#m - F#m - C#m - A - Ab
e|----------------------11-12-11.-12-14-<14>/14-12--12/11-12/11-11-11--
B|----------14-12-12/14------------------------------------------------
G|-11/13-14------------------------------------------------------------
D|---------------------------------------------------------------------
A|---------------------------------------------------------------------
E|---------------------------------------------------------------------

e|----11-12---------------------------------|
B|-13----------------12----------------9>>--|
G|----------11/13-14----------8-9-----9-----|
D|-----------------------9/11-------11------|
A|--------------------------------11--------|
E|------------------------------------------|


C#m
Girl you said you loved me and you'd never go
           F#m                                  C#m
you were lyin' to me you thought I'd never know (Riff 6)
C#m
I just wanna tell you girl before I go
                     F#m                      C#m        A - Ab
take a good look at me I won't look back no more (Riff 7)


C#m                     F#m
No quiero perder tu amor, oh oh
A              C#m
pero te voy a dejar ir
C#m                F#m
no quiero mirarte ir, oh oh
A                  C#m
voy a tener que andar de aqui.


Solo: C#m - F#m - A - C#m
e|--------9-----9---------9-----9..--
B|--9---9---<11>----9---9---<11>-----
G|-<11>------------<11>--------------
D|-----------------------------------
A|-----------------------------------
E|-----------------------------------

e|-11-11/12-12-12/14-14.-14/16-16-16-16-16>--|
B|-------------------------------------------|
G|-------------------------------------------|
D|-------------------------------------------|
A|-------------------------------------------|
E|-------------------------------------------|


C#m                     F#m
I don't wanna lose your love oh oh
A                    C#m
  I guess I have to let you go
C#m                     F#m
I don't wanna watch you leave oh oh
A                    C#m
  I guess I have to walk away.


Solo: C#m - F#m - A - C#m (x4)
e|-------12-12----12----12-12----12-12-------14-14/-14-14----16-16----16--
B|-12/14-------14----14-------14-------14/16--------------17-------17-----
G|------------------------------------------------------------------------
D|------------------------------------------------------------------------
A|------------------------------------------------------------------------
E|------------------------------------------------------------------------

e|-------16-------16-------16-------16--17-16-17-17/18>>>19>>><20>-<20>.--
B|-14/17----14/17----14/17----14/17---------------------------------------
G|------------------------------------------------------------------------
D|------------------------------------------------------------------------
A|------------------------------------------------------------------------
E|------------------------------------------------------------------------

e|--16--16-16-16-16-19-19-17-17.-------------------16-16----------
B|-<19>--------------------------19-19-19-19-19-17------17--------
G|--------------------------------------------------------18-18.--
D|----------------------------------------------------------------
A|----------------------------------------------------------------
E|----------------------------------------------------------------

e|-<19>-<19>-<19>-<19>.-21-23-<23>/23-21-21../19-19/17-17/16-----16>>>--
B|---------------------------------------------------------------17>>>--
G|-----------------------------------------------------------18---------
D|----------------------------------------------------------------------
A|----------------------------------------------------------------------
E|----------------------------------------------------------------------

e|-16-16-16-16-16-19-19-17-16-17-16----16-16/17/16--------------------
B|----------------------------------19-------------19-17-16-17-16-----
G|----------------------------------------------------------------17--
D|--------------------------------------------------------------------
A|--------------------------------------------------------------------
E|--------------------------------------------------------------------

e|--9----11---12---14---16--16/17/16/17/16/17>>>>18>>>><19>...---|
B|-<12>-<14>-<15>-<17>-<19>--------------------------------------|
G|---------------------------------------------------------------|
D|---------------------------------------------------------------|
A|---------------------------------------------------------------|
E|---------------------------------------------------------------|


RIFFS
-----

Riff 1
e|----------------------------------------------------|
B|-----------9-9------9-9------9-9-12-9---------------|
G|----9-<11>-----<11>-----<11>----------<11>-11-9.-11-|
D|-11-------------------------------------------------|
A|----------------------------------------------------|
E|----------------------------------------------------|

Riff 2
e|----------12-----------12--------------------------------|
B|----12-14----14-14...-------14-12------------------------|
G|-13-------------------------------13-9-11-9-<11...>/11-9-|
D|---------------------------------------------------------|
A|---------------------------------------------------------|
E|---------------------------------------------------------|

Riff 3
e|-------------------------------|
B|-14-12-------------------------|
G|-------13-<11>/11-9----11-11-9-|
D|--------------------11---------|
A|-------------------------------|
E|-------------------------------|

Riff 4
e|-------12-------------12-12------12-<14//>--14-14-14-12-12-|
B|-12-14----14-14...-14---------14---------------------------|
G|-----------------------------------------------------------|
D|-----------------------------------------------------------|
A|-----------------------------------------------------------|
E|-----------------------------------------------------------|

Riff 5
e|---------------------|
B|---------------------|
G|-----------9/11-11-9-|
D|------9/11-----------|
A|-9/11----------------|
E|---------------------|

Riff 6
e|------------------------|
B|-12..-------------------|
G|------14-13-11-9-<11>..-|
D|------------------------|
A|------------------------|
E|------------------------|

Riff 7
e|--------------------------------------------------------|
B|-<17>/17--14...-14-12----12-14---14-12------------------|
G|----------------------13---------------13-9-11/<11>..-9-|
D|--------------------------------------------------------|
A|--------------------------------------------------------|
E|--------------------------------------------------------|

                   --------
                º-| ¤    ¤ |-º
                º-|  LuïS  |-º
                º-| ¤    ¤ |-º
                          /
                    |    |
        ·===========================·
        | luis_6cuerdas@ |
        ·===========================·


*Si hubiese algún error o alguna duda, escribe al mail o avisa por MSN*
Suggest correction
Give kudos to tab author, rate the tab!
1 2 3 4 5
comments
print report bad tab
guest
You may want to rate the tab now too:
select rating
Wanna post a correction for this tab? Suggest correction