Oops, an error
Loading. Please wait.

Into The Night intro tab

version 2
by Santana
56,609 views 1 this week
11 commentsread comments
1 2 3 4 5
x 5
add to favorites
×
Save as Personal and add changes to this tab that will be seen only by you. Learn more ›
×
You can save this tab as Personal to edit and correct it or add notes. All changes will be seen only by you. Learn more »
launch autoscroll
font size
0
reset
how to read this tab
guitar tuner
edit
Autoscroll
slow
fast
+/-
esc
set tempo
stop
Author
Difficulty
Song: Into The Night
Artist: Carlos Santana Feat. Chad Kroeger (Nickelback)
Tabbed By: Zeeshan Amin

Just the Sanatana part. Play in bits with Chads guitar. 

Intro 

e|--------------------------------------------|
B|--0-1-0-------------------5-8-10-10-5-3-1-1-|
G|--------2-0----5-7-9-7----------------------|
D|--------------------------------------------|
A|--------------------------------------------|
E|--------------------------------------------|
 
(Continued)

e|--------0h3--5-----------------------|
B|------1--------3-3-3-----------------|
G|----2-----------------5-7-7-5-4-2-0--|
D|--2----------------------------------|
A|-------------------------------------|
E|-------------------------------------|
 

For any queries or improvements : mzeeshanamin@hotmail.com       

            
            
Suggest correction
Creating personal tab
Creating personal tab
You can edit any tab online and save it as your Personal.

You can edit, replace or remove any tab part or add personal notes – all changes will be seen only by you.

Personal tabs can be accessed anytime from any device, even offline.
Learn more »
comments
print report bad tab
11 comments total. Showing first comments.
0 reply
guitar351 50 Nov 18, 2007 09:21 AM

good

-2 reply
ethan1234 10 Feb 03, 2008 08:01 AM

wow this is a joke definatly not the was santana plays it.....srry dude but it sucks

+1 reply
Justright117 10 Feb 23, 2008 04:12 PM

Hey man some of this is very good. not sure on the
e--------------------------------------
b---0-1-0--------------------------------------
g----------2-0--------------------------------------
d-------------------------------------------------
a-------------------------------------------------
E----------------------------------------------

but the 5-7-9-7 at 1st part is 100% right bu I woul do it like 5-7-9-7br. bend realease but kinda bend it back and forth to the beat of the song if your listening to the song. kinda hard to follow what you were doing I did not under stand some thing's you put on there..have no idea were you got them from and I was playing along with the song doing this tab so I know. But a good try keep working on it a little more

guest
You may want to rate the tab now too:
select rating
Wanna post a correction for this tab? Suggest correction