Oops, an error
Loading. Please wait.

Into The Night solo tab

version 2
version 2
by Santana
16,301 views 1 this week
2 commentsread comments
1 2 3 4 5
x 6
add to favorites
×
Save as Personal and add changes to this tab that will be seen only by you. Learn more ›
×
You can save this tab as Personal to edit and correct it or add notes. All changes will be seen only by you. Learn more »
launch autoscroll
font size
0
reset
how to read this tab
guitar tuner
edit
Autoscroll
slow
fast
+/-
esc
set tempo
stop
Author
Difficulty
---------------------------------------------------------------------
                             Into the night - Carlos santana
---------------------------------------------------------------------
Tabbed by: Ahsen khan
Email: rocking_lead_guitar@hotmail.com

Tuning: Standard(EADGBe)

okay A Wah pedal is used through out the solo, as he starts with the (17 part)he opens 
closes the pedal alternatively a couple of times. i dont have a Wah pedal and dont really 
how it would sound with a pedal but even if you play it with a distorted guitar
it sounds quiet accurate and sounds good..

solo

e|-------------------------------------------------------------------------|
B|-------------------------------------------------------------------------|
G|--17-17-17-17--17-15--12-12-12--15h17---12-12-10---8-10------------------|
D|--------------------------------------------------------15--13-----------|
A|-------------------------------------------------------------15-13-------|
E|------------------------------------------------------------------13b----|

                                       v ^ v
e|-------------------------------------------------------------------------|
B|----19-17-15--12---21-19-17-15--12--121212-15--12-10-12-17-19-17-15-12---|
G|--19---------------------------------------------------------------------|
D|-------------------------------------------------------------------------|
A|-------------------------------------------------------------------------|
E|-------------------------------------------------------------------------|

                                     v ^ v
e|--19b-17-15--12--21-19b-17-15--12--121212-15--12-10-12-17--15-15-12-10-8-|
B|-------------------------------------------------------------------------|
G|-------------------------------------------------------------------------|
D|-------------------------------------------------------------------------|
A|-------------------------------------------------------------------------|
E|-------------------------------------------------------------------------|

           v ^ v ^ v
e|--15h17-1717171717-1517--------------------------------------------------|
B|------------------------19-17-15-----------------8-8-8-10-5-3-5-(5s21)*--|
G|--------------------------------17-15--17-15-12--------------------------|
D|-------------------------------------17----------------------------------|
A|-------------------------------------------------------------------------|
E|-------------------------------------------------------------------------|

okay the last part i really cudnt figure out the (5s21) but i think during the slide he 
the string really fast like shredding and while playing with the Wah pedal but to get 
true sound you need the pedal anyways worked really hard on this hope you guys
enjoy the tab and there is still alot more to this tab so contact me on my email
address for any 
...

            
            
Suggest correction
Creating personal tab
Creating personal tab
You can edit any tab online and save it as your Personal.

You can edit, replace or remove any tab part or add personal notes – all changes will be seen only by you.

Personal tabs can be accessed anytime from any device, even offline.
Learn more »
comments
print report bad tab
2 comments total.
0 reply
a7x4lifeman 61 Feb 04, 2008 09:38 AM

i think ur tab is fairly accurate so ill probably use this one if i play it. 5 stars.

0 reply
jcrocker 170 Feb 06, 2008 10:51 AM

thanks dude anyways like your axe sweet

guest
You may want to rate the tab now too:
select rating
Wanna post a correction for this tab? Suggest correction