Oops, an error
Loading. Please wait.

La Danza Tab

173 views 3 this week
no commentswrite comment
1 2 3 4 5
3 more votes to show rating
add to favorites
launch autoscroll
font size
0
reset
how to read this tab
guitar tuner
Autoscroll
slow
fast
+/-
esc
set tempo
stop
Help us to improve Ultimate-Guitar.com Take our survey!
×
e|-12--7--10----7--12--14--12--7--10----7--12--7--10--------------
B|----------------------------------------------------------------
G|----------------------------------------------------------------
D|----------------------------------------------------------------
A|----------------------------------------------------------------
E|----------------------------------------------------------------


e|-----------------------------------------------------------------
B|--8--10/12--12--12--12/13--10--12--------------------------------
G|-----------------------------------------------------------------
D|-----------------------------------------------------------------
A|-----------------------------------------------------------------
E|-----------------------------------------------------------------


e|-12--7--10----7--12--14--12--7--10----7--12--7--10--------------
B|----------------------------------------------------------------
G|----------------------------------------------------------------
D|----------------------------------------------------------------
A|----------------------------------------------------------------
E|----------------------------------------------------------------


e|------------------------------------------------------
B|--8--10/12--12--12/13--10--12----10--8--8/7--8/7---5--
G|------------------------------------------------------
D|------------------------------------------------------
A|------------------------------------------------------
E|------------------------------------------------------


Esa es la introducciòn..Luego comienza la cancion..
Saludos amigos de la 

jony_bostero2002@
Suggest correction
Give kudos to tab author, rate the tab!
1 2 3 4 5
comments
print report bad tab
guest
You may want to rate the tab now too:
select rating
Wanna post a correction for this tab? Suggest correction