Oops, an error
Loading. Please wait.

Make Somebody Happy Tab

1,677 views 15 this week
no commentswrite comment
1 2 3 4 5
2 more votes to show rating
add to favorites
launch autoscroll
font size
0
reset
how to read this tab
guitar tuner
Autoscroll
slow
fast
+/-
esc
set tempo
stop
Help us to improve Ultimate-Guitar.com Take our survey!
×
En vivo, desde el concierto 'SACRED FIRE' realizado en México.


F = xx3210 (creo que también puede ser Am = 002210)
G = 355433


*INTRO*
            |--F--|                |--G--|
e|------------------0-------------------------|
B|-5-3-------------1------5-3---5-------3-----|
G|-----5----------2-----------5--------4------|
D|-------5-2-----3--------------------5-------|
A|-----------------------------------5--------|
E|--------------------------------------------|


'Queremos decirles que estamos muy agradecidos de regresar al corazón
de este país, que esta ciudad. Estar con ustedes, y decirles que
ustedes están bendecidos porque están centrados en el centro del corazón
de México, que es la Virgen de Guadalupe. La visión de ella, es la misma
visión de todos lo corazones: que llegue el día donde no haya banderas,
ni fronteras, ni carteras. Solamente que exista lo que existe en el cielo:
compasión, luz, armonía. Esta canción se llama 'Haz feliz a alguien''

                                          Carlos Santana

*CORO*
            F                  G
Make somebody happy, make somebody ¿?            [x2]


F                  G
Love me, love me with all your heart
      F
and I will..and I will..I will... I will...I will
          G
I will take care of you.


*CORO*

      F            G
Just you, having you by my side
      F
and I will..and I will..and I will..I will...
         G
I will be satisfied.


*CORO*


*SOLO*: F - G (se repite todo el Solo)
e|-10/12..-10-10-12-----------10-12------------------------------10--
B|------------------13-10/-13-------13-10/----12-13-12.-13-12-13-----
G|-----------------------------------------12------------------------
D|-------------------------------------------------------------------
A|-------------------------------------------------------------------
E|-------------------------------------------------------------------

e|-----------------------------------------------------
B|-13-12-10-12-12-12-10-10-----------------------------
G|-------------------------12-12-9-9-7-5/7-9--5-4-2..--
D|-----------------------------------------------------
A|-----------------------------------------------------
E|-----------------------------------------------------

e|-----------------------------------
B|-----------------------3-----------
G|-2-4-5-4-5-4-5-4-2-4-5-------------
D|-------------------------5/7/5---5-
A|-------------------------------7---
E|-----------------------------------

e|-----15.-13.-12.----------12.----15-17-15-13-12----------12--------
B|-----------------15-13-15-----------------------15-13-15----13-15--
G|-12.--------------------------12-----------------------------------
D|-------------------------------------------------------------------
A|-------------------------------------------------------------------
E|-------------------------------------------------------------------

e|-15-15-15-19-19-15-15-------------12-13-15-15/17.-----------
B|----------------------15-15/-15/------------------17--------
G|-----------------------------------------------------17-14--
D|------------------------------------------------------------
A|------------------------------------------------------------
E|------------------------------------------------------------


e|-17-17-17-17-------15------------------------------------------------
B|-------------17-17----17-15-17--------------------10-10-12-12-13-13--
G|-------------------------------17-14--------12-12--------------------
D|--------------------------------------12-12--------------------------
A|---------------------------------------------------------------------
E|---------------------------------------------------------------------

e|-10-10-12-12-13-13-13-13.-12-13-13.-15-15.-17..---
B|--------------------------------------------------
G|--------------------------------------------------
D|--------------------------------------------------
A|--------------------------------------------------
E|--------------------------------------------------

  |--------------- A -----------------|
e|------7-8-8-8-10.------7-8-8-8-10-10..--19-15--------------------10-12.-
B|-8-10-------------8-10------------------------15-12-----10-12-13--------
G|----------------------------------------------------12.-----------------
D|------------------------------------------------------------------------
A|------------------------------------------------------------------------
E|------------------------------------------------------------------------


e|-10--------12-10-------12-10----12-10-------12-10---------
B|----13-10/-------13-10-------13-------13-10-------13-10---
G|----------------------------------------------------------
D|----------------------------------------------------------
A|----------------------------------------------------------
E|----------------------------------------------------------

e|-12-13-12-10-12-10-12-12--10/12..--10/12-12-10/12-12-10/12-12--
B|---------------------------------------------------------------
G|---------------------------------------------------------------
D|---------------------------------------------------------------
A|---------------------------------------------------------------
E|---------------------------------------------------------------

                                       |------ B -----|
e|----------------17/19-19-19.-19/20..--20/19/17/19/20--20/22.-22/20-----
B|-8>>>>>-10>>>>>----------------------------------------------------22--
G|-----------------------------------------------------------------------
D|-----------------------------------------------------------------------
A|-----------------------------------------------------------------------
E|-----------------------------------------------------------------------

e|-10/12..-12-12-12-12-12-12-------------------------------------------
B|---------------------------13-13-13/12-12/10-10/8-8/5-5/3-3/1-3/5----
G|------------------------------------------------------------------2--
D|---------------------------------------------------------------------
A|---------------------------------------------------------------------
E|---------------------------------------------------------------------

e|---------------------------------10----10-----------------------
B|-----3-5----10----10-13-13-13-13----13--------------------------
G|-5-5-----2-----12---------------------------(falta esta parte)--
D|----------------------------------------------------------------
A|----------------------------------------------------------------
E|----------------------------------------------------------------

e|-15-13-12.----15-13-12--15-17-15-17-15-17-15-13---------------------
B|-----------13-------------------------------------------------------
G|------------------------------------------------(falta esta parte)--
D|--------------------------------------------------------------------
A|--------------------------------------------------------------------
E|--------------------------------------------------------------------

 |-varias veces-|        |--------- C ---------|
e|-17/19/17/19---20/22..---12-10-------12-12.-12./--12-13-12----------12--
B|-------------------------------13-10-----------------------15-13-15-----
G|------------------------------------------------------------------------
D|------------------------------------------------------------------------
A|------------------------------------------------------------------------
E|------------------------------------------------------------------------

e|-15-15-17-17-19-19-20-20-22-22..-20/22-20/22-20/22-20/22-20/22-20---------|
B|------------------------------------------------------------------12/13..-|
G|--------------------------------------------------------------------------|
D|--------------------------------------------------------------------------|
A|--------------------------------------------------------------------------|
E|--------------------------------------------------------------------------|


            F            G
Make somebody happy, ¿?
            F            G
make somebody ¿?, a quien se cayó.
            F            G
make somebody happy, dale la mano
            F            G
Make somebody happy ¿?.


            Am            G
Dale la mano a quien se cayó. (x2)

     Am
Caminando con mi hermano
                        G
y dándole la mano y mi corazón.  [x6]


            Am
Make somebody happy..


*Las partes A, B y C se hacen en sonidos más agudos.


                 --------
              º-| ¤    ¤ |-º
              º-|  LuïS  |-º
              º-| ¤    ¤ |-º
                 \      /
                |    |
      ·===========================·
      | luis_6cuerdas@ |
      ·===========================·


*Si hubiese algún erraor o alguna duda, escribe al mail o avisa por MSN*
Suggest correction
Give kudos to tab author, rate the tab!
1 2 3 4 5
comments
print report bad tab
guest
You may want to rate the tab now too:
select rating
Wanna post a correction for this tab? Suggest correction