Oops, an error
Loading. Please wait.

Mother's Daughter Tab

version 2
version 2

Whole song

by Santana
113 views 1 this week
no commentswrite comment
1 2 3 4 5
2 more votes to show rating
add to favorites
launch autoscroll
font size
0
reset
how to read this tab
guitar tuner
Autoscroll
slow
fast
+/-
esc
set tempo
stop
Hola q tal, soy Lualanmi, y aquí les traigo
algo de Santana. Cualquier me la hacen llegar a Youtube:

Salu2


____________
Intro (Where the Guitar comes in) (00:15):
|-------------------------------------------------------------------|
|----4----------4------------------------3--------------------------|
|----5p3-2------3b5b3b5b3b5---------2----3----5p32h3b5--------2----|
|-3-----------3---------------------3----3---------------------3----|
|-----------------------------------3--------------------------3----|
|-------------------------------------------------------------------|

"aw, Yeah!"

Chorus:
|----------------------------------------------------------3-------|
|-6b8----6----6h8p6h8p6h8p6-4--3h4p3----3h4p3-----------3---4p3---|
|-------------------------------------5--------5p32h3h5---------5-|
|------------------------------------------------------------------|
|------------------------------------------------------------------|
|------------------------------------------------------------------|

|------------------------------------------------|
|-8----10b11----10----6-4-4b6-b4----------------|
|---------------------------------5-3--3b5b32---|
|----------------------------------------------3-|
|------------------------------------------------|
|------------------------------------------------|

|-------------------------------------------------------3-------|
|-6b8----6----6h8p6h8p6h8p6-43h4p3---3h4p3-----------3---4p3---|
|-----------------------------------5-------5p32h3h5---------5-|
|---------------------------------------------------------------|
|---------------------------------------------------------------|
|---------------------------------------------------------------|

|-----------------------------------------------------|
|-8----10b11----10----6-4-4b6-b4------------------6--|
|---------------------------------5-3--3b5b32---5----|
|----------------------------------------------3------|
|-----------------------------------------------------|
|-----------------------------------------------------|

Chords:

F       C                         F
 Got no time for foolin with you, baby

|----------------------|
|----------------------|
|-------------8--10----|
|-----5-6-8---8--10----|
|---8---------6--8-----|
|-6--------------------|

F            C                F
 Your stupid game is about to end

|------------------------|
|------------------------|
|---------------8--10----|
|-----5-6-8-8---8--10----|
|---8-----------6--8-----|
|-6----------------------|


F              C                       F
 You played it out, thought you had it made

|--------------------------|
|--------------------------|
|-----------------8--10----|
|-------5-6-8-8---8--10----|
|-----8-----------6--8-----|
|-6-6----------------------|

F                            C              F
 And it looks like someone's passin' by again

|---------------------|
|---------------------|
|--------------5-6/8--|
|-------5-6-8---------|
|-----8---------------|
|-6-6-----------------|


|----------------------------------------------------------3-------|
|-6b8----6----6h8p6h8p6h8p6-4---3h4p3---3h4p3-----------3---4p3---|
|--------------------------------------5-------5p32h3h5---------5-|
|------------------------------------------------------------------|
|------------------------------------------------------------------|
|------------------------------------------------------------------|

|------------------------------------------------------|
|-6h8----10b11----10-----------------------------------|
|-----------------------10-10-10-8-8-8-8b10b8------10--|
|---------------------------------------------7-10-----|
|------------------------------------------------------|
|------------------------------------------------------|

Chords:

F           C             F
 I left you standin' in a corner

|----------------------|
|----------------------|
|-------------8--10----|
|-----5-6-8---8--10----|
|---8---------6--8-----|
|-6--------------------|

F                      C             F
 She told me she would try to find a way

|--------------------------|
|--------------------------|
|-----------------8--10----|
|-------5-6-8-8---8--10----|
|-----8-----------6--8-----|
|-6-6----------------------|

F         C                      F
 I got to leave 'fore I get much older

|--------------------------|
|--------------------------|
|-----------------8--10----|
|-------5-6-8-8---8--10----|
|-----8-----------6--8-----|
|-6-6----------------------|

F                C                     F
 Cause she ain't moved in nearly forty days

|---------------------|
|---------------------|
|--------------5-6/8--|
|-------5-6-8---------|
|-----8---------------|
|-6-6-----------------|

"Yeah!"

|-------------------------------------------------|
|-8----6----6h8---8-6-6-6-4-4-43-3/4-4-6-6-6-4---|
|-----------------------------------------------5-|
|-------------------------------------------------|
|-------------------------------------------------|
|-------------------------------------------------|

|---------------------------------------------------|
|-8----10b11----10----6-4-4b6-b4-------------------|
|---------------------------------5-3--3b5b32----2-|
|----------------------------------------------3--3-|
|-------------------------------------------------3-|
|---------------------------------------------------|

F        C                        F
 I got a woman that's treatin' me better

|------------------------|
|------------------------|
|---------------8--10----|
|-----5-6-8-8---8--10----|
|---8-----------6--8-----|
|-6----------------------|

F              C                     F
 She takes her time and she ain't so cruel

|--------------------------|
|--------------------------|
|-----------------8--10----|
|-------5-6-8-8---8--10----|
|-----8-----------6--8-----|
|-6-6----------------------|

F      C                   F
 I got someone to take you over

|--------------------------|
|--------------------------|
|-----------------8--10----|
|-------5-6-8-8---8--10----|
|-----8-----------6--8-----|
|-6-6----------------------|

F            C                              F
 Your mother ain't so bad, what happened to you?

|---------------------|
|---------------------|
|--------------5-7/8--|
|-------5-6-8---------|
|-----8---------------|
|-6-6-----------------|


|---------------------------------------------------3-----------------|
|-6b8----6----6h8p6h8p6h8p6-4--3h4p3---------4-------6p4-------------|
|-------------------------------------5--3b5----5b3-------5p3-5p3-----|
|-----------------------------------------------------------------5-3-|
|---------------------------------------------------------------------|
|---------------------------------------------------------------------|

|----------------------------------------------1-|
|-8----10b11----10----6-4-4b6-b4----------------|
|---------------------------------5-3--3b5b32---|
|------------------------------------------------|
|------------------------------------------------|
|------------------------------------------------|

|---------------------9b11--
|-8----11----11b13----------
|---------------------------
|---------------------------
|---------------------------
|---------------------------


-----------------------------------------------------|
-----------------------------------------------------|
-----------------------------------------------------|
----------5-5-5-5----5-5-5----------8-8-8-8----8-8-8-|
----------5-5-5-5----5-5-5----------8-8-8-8----8-8-8-|
-0-1-2-3-----------3--------3-4-5-6----------6-------|


|--------------------------|
|--------------------------|
|-5-----5---5-5-5----7----|
|-5-----5---5-5-5----7----|
|-3-----3---3-3-3----5----|
|--------------------------|

Guitar Solo:
|-------10---------10---------10---------10--------10-10-10---|
|----------13b15------13b15------13b15------13b15-------------|
|-------------------------------------------------------------|
|-0-----------------------------------------------------------|
|-------------------------------------------------------------|
|-------------------------------------------------------------|

|------------------------------7---------------------------------|
|-----8-8----8----6h8----6h8-----8-6h8----6-8p6-8p6-8p6-8p6-8p6--|
|---7------------------------------------------7---7---7---7---7-|
|-9--------------------------------------------------------------|
|----------------------------------------------------------------|
|----------------------------------------------------------------|

|-15-13-15-13-------13-------13-15p13----------13-
|-------------13b15----13b15----------15-13h15----
|-------------------------------------------------
|-------------------------------------------------
|-------------------------------------------------
|-------------------------------------------------


--10h13p10-13--------13--------13-|
--------------13h15-----13h15-----|
----------------------------------|
----------------------------------|
----------------------------------|
----------------------------------|


|--------13-------13-------------
|-13h15-----13h15----13b15b13-12-
|--------------------------------
|--------------------------------
|--------------------------------
|--------------------------------


--13/15-15-15-13/15-15-15-13/15-15-15-13/15-15-15-13-|
--13/15-15-15-13/15-15-15-13/15-15-15-13/15-15-15-13-|
------------------------------------------------------|
------------------------------------------------------|
------------------------------------------------------|
------------------------------------------------------|


|-------------------------------------------------------
|-------------------------------------------------------
|-5-5------------7--7-7-7-----------7--7-7-7-7----------
|-7-5------------8--8-8-8-----------8--8-8-8-8----------
|------8-6-6-8-------------6-6-6-8--------------6-6-6-6-
|-------------------------------------------------------

---------------------------|
------------10h12p10h12p10-|
--7h9p7h9p7----------------|
---------------------------|
---------------------------|
---------------------------|


|------------------------------------------------------------|
|-----------10h12p10h12p10--/12-12-12-12-12--12-12--10-10-12-|
|-7h9p7h9p7-----------------/12-12-12-12-12--12-12--10-10-12-|
|------------------------------------------------------------|
|------------------------------------------------------------|
|------------------------------------------------------------|

|------------------------------------------------------------------|
|-/12-12-12-12-12--15-15-15-15-15-/12-12-12-12-12--12-12--10-10-12-|
|-/12-12-12-12-12--14-14-14-14-14-/12-12-12-12-12--12-12--10-10-12-|
|------------------------------------------------------------------|
|------------------------------------------------------------------|
|------------------------------------------------------------------|

|------------------------------------------------------------15p13----15-|
|-/20--20-20-20--/20--20-20-20--/20--20-20-20--/19--19-19-19-------15----|
|-/19--19-19-19--/19--19-19-19--/19--19-19-19--/19--19-19-19-------------|
|------------------------------------------------------------------------|
|------------------------------------------------------------------------|
|------------------------------------------------------------------------|
Suggest correction
Give kudos to tab author, rate the tab!
1 2 3 4 5
comments
print report bad tab
guest
You may want to rate the tab now too:
select rating
Wanna post a correction for this tab? Suggest correction