Oops, an error
Loading. Please wait.

No One To Depend On tab

version 3
version 3

Whole song

by Santana
34 views 6 this week
no commentswrite comment
1 2 3 4 5
3 more votes to show rating
add to favorites
×
Save as Personal and add changes to this tab that will be seen only by you. Learn more ›
×
You can save this tab as Personal to edit and correct it or add notes. All changes will be seen only by you. Learn more »
launch autoscroll
font size
0
reset
how to read this tab
guitar tuner
edit
Autoscroll
slow
fast
+/-
esc
set tempo
stop
About this tab version
Because i add both guitars and you havent. Was this info helpful? Yes No
Both Guitar

[Rhythm guitar]
e|--------------------------------------------------------------------------|
B|-/10------------------/10--11p10--------------------------3---------------|
G|------9--7---7-9-10-7------------7---------/7----5h7p5~~--3---/7----5h7p5-|
D|---------------------------------------5-5-----5------------5-----5-------|
A|--------------------------------------------------------------------------|
E|--------------------------------------------------------------------------|

e|--------------------------------------------------------------------------|
B|-3---5h6~~----8h10-10p8~~-------/10--10p8-10p8~~--------------------------|
G|-3---------7-------------10p7--------------------10p7-10~---7-10-9~-------|
D|---5----------------------------------------------------------------------|
A|--------------------------------------------------------------------------|
E|--------------------------------------------------------------------------|

e|--------------------------------------------------------------------------|
B|--------------------------------------------------------------------------|
G|-7h9p7---7----10~~----10----10-9~~--7h9p7---7-----------------------------|
D|-------8---8-------12----12---------------8---8---------------------------|
A|------------------------------------------------10------------------------|
E|--------------------------------------------------------------------------|

e|--------------------------------------------------------------------------|
B|--------------------------------------------------------------------------|
G|-7----7--9-------9-----9-7-----------7----7--9-------9-----9-7------------|
D|-8----8-10------10----10-8-----------8----8-10------10----10-8------------|
A|---10--------------10------10p8-10~----10--------------10------10p8---10~-|
E|-----------(8-8)-------------------------------(8-8)---------------10-----|

e|--------------------------------------------------------------------------|
B|--------------------------------------------------------------------------|
G|-7----7--9-------9-----9-7-------------7----7--9-------9-----9-7----------|
D|-8----8-10------10----10-8-------------8----8-10------10----10-8----------|
A|---10--------------10------10p8----10~---10--------------10------10p8-----|
E|-----------(8-8)----------------10---------------(8-8)---------------10---|

e|--------------------------------------------------------------------------|
B|-8--8-8--8--8-8--8--8-8----8--8-8--8--8-8--8--8-8-------------------------|
G|-7--7-7--7--7-7--7--7-7----7--7-7--7--7-7--7--7-7-------------------------|
D|-8--8-8--8--8-8--8--8-8----8--8-8--8--8-8--8--8-8-------------------------|
A|--------------------------------------------------------------------------|
E|--------------------------------------------------------------------------|

e|--------------------------------------------------------------------------|
B|--------------------------------------------------------------------------|
G|----7----7--9-------9-----9-7---------7-----------------------------------|
D|----8----8-10------10----10-8---------8-----------------------------------|
A|10----10--------------10------10p8---10-----------------------------------|
E|-------------(8-8)----------------10--------------------------------------|

e|--------------------------------------------------------------------------|
B|-----------------------------------8-------------------8---8--8---8-------|
G|--9--9--7--9-------7---7--7---9----7----9--9---9--9----7---7--7---9-------|
D|-10 10--8-10-------8---8--8--10----8---10-10--10-10----8---8--8--10-------|
A|------------------10--10-10--10-----------------------10--10-10--10-------|
E|------------------------------8-----------------------------------8-------|

                                                                           (x4)
e|--|-------------------------------------------------------------------------|
B|--|-------------------------------------------------------------------------|
G|--|--7----7--9-------9-----9-7------------7----7--9------9-----9-7----------|
D|--|--8----8-10------10----10-8------------8----8-10-----10----10-8----------|
A|10|----10--------------10------10p8---10~---10-------------10------10p8--10-|
E|--|-----------(8-8)----------------10--------------(8-8)---------------10---|

                 (x8)
e|-----------------|
B|-----------------|
G|-----------------|
D|-----------------|
A|--1-3-3-1-3p1-3--|
E|-3---------------|

                                 (x20)
e|----------------------------------|
B|----------------------------------|
G|----------------------------------|
D|----------------------------------|
A|---1-3-3-1-3p1-3------1-1---1-----|
E|-3----------------1h3-----3---3---|

e|--------------------------------------------------------------------------|
B|--------------------------------------------10~~-8/10\8~~-------10~~------|
G|---5/7~--0-5/7-5~~--3p2-5/7--0-5/7\5~~---------------------10p9-----------|
D|-5--------------------------------------8p7-------------------------------|
A|--------------------------------------------------------------------------|
E|--------------------------------------------------------------------------|

e|--------------------------------------------------------------------------|
B|-8-10p8~~-----------------------------------------------------------------|
G|----------10p9-10~--7-10-9~~--7h9p7---7----10~-7-10p7-10p9--7h9p7---7-----|
D|------------------------------------8---8-------------------------8---8---|
A|-----------------------------------------------------------------------10-|
E|--------------------------------------------------------------------------|

e|--------------------------------------------------------------------------|
B|--------------------------------------------------------------------------|
G|-7----7--9-------9-----9-7------------7----7--9------9-----9-7------------|
D|-8----8-10------10----10-8------------8----8-10-----10----10-8------------|
A|---10--------------10------10p8---10~---10-------------10------10p8---10~-|
E|-----------(8-8)---------------10--------------(8-8)---------------10-----|

e|--------------------------------------------------------------------------|
B|--------------------------------------------------------------------------|
G|-7----7--9-------9-----9-7------------7----7--9------9-----9-7------------|
D|-8----8-10------10----10-8------------8----8-10-----10----10-8------------|
A|---10--------------10------10p8---10~---10-------------10------10p8-------|
E|-----------(8-8)---------------10--------------(8-8)---------------10-----|

                                                  (x2)
e|--------------------------------------------------|-----------------------|
B|-8--8-8--8--8-8--8--8-8----8--8-8--8--8-8--8--8-8-|--8-8------------------|
G|-7--7-7--7--7-7--7--7-7----7--7-7--7--7-7--7--7-7-|--7-7------------------|
D|-8--8-8--8--8-8--8--8-8----8--8-8--8--8-8--8--8-8-|--8-8------------------|
A|--------------------------------------------------|-----------------------|
E|--------------------------------------------------|-----------------------|

[Solo guitar]
(0:32)
e|-------------------------------------------------------------3------------|
B|-3-3-5h6~~--5h6-5~~--3---5h6~~--5h6-5~~-----5h6--5-6-5h6p5~~--------------|
G|-3-3-----------------3------------------3----------------------5brp3------|
D|-5-5-------------------5------------------5--------------------------5----|
A|--------------------------------------------------------------------------|
E|--------------------------------------------------------------------------|

e|------------------5--6/8--9/10~~--13--------------------------------------|
B|-5/6~~-5-6-5--6-8--------------------13b-13r~~--13brp11-----11------------|
G|--------------------------------------------------------12-----12---------|
D|--------------------------------------------------------------------------|
A|--------------------------------------------------------------------------|
E|--------------------------------------------------------------------------|

e|-----13-13-----13------------/15------------------------------------------|
B|-13b-------13b----13b-13r~~--/15------------------------------------------|
G|---------------------------------15-12\-----------------------------------|
D|--------------------------------------------------------------------------|
A|--------------------------------------------------------------------------|
E|--------------------------------------------------------------------------|

e|--------------------------------------------------------------------------|
B|-x-x-3-x-3-5~--x-x-5-x-5-3-----3--x-x-3-x-3-5~--x-x-5-x-5-3-----3---------|
G|-x-x-3-x-3-5~--x-x-5-x-5-3-----3b-x-x-3-x-3-5~--x-x-5-x-5-3-----3b--------|
D|-x-x-----------x-x----------------x-x-----------x-x-----------------------|
A|---------------------------4/5------------------------------4/5-----------|
E|--------------------------------------------------------------------------|

e|--------------------------------------------------------------------------|
B|-x-x-3-x-3-5~--x-x-5-x-5-3-----3--x-x-3-x-3-5~--x-x-5-x-5-3---------------|
G|-x-x-3-x-3-5~--x-x-5-x-5-3-----3b-x-x-3-x-3-5~--x-x-5-x-5-3---------------|
D|-x-x-----------x-x----------------x-x-----------x-x-----------------------|
A|---------------------------4/5--------------------------------------------|
E|--------------------------------------------------------------------------|

e|---------------------------15--15-15--15--15-15--15--15-15----------------|
B|-8--8-8--8--8-8--8--8-8----15--15-15--15--15-15--15--15-15----------------|
G|-7--7-7--7--7-7--7--7-7----15--15-15--15--15-15--15--15-15----------------|
D|-8--8-8--8--8-8--8--8-8---------------------------------------------------|
A|--------------------------------------------------------------------------|
E|--------------------------------------------------------------------------|

          (x20)
e|-/18-|-18-|-20\-----------------------------------------------------------|
B|-----|----|---------------------------------------------------------------|
G|-----|----|---------------------------------------------------------------|
D|-----|----|---------------------------------------------------------------|
A|-----|----|---------------------------------------------------------------|
E|-----|----|---------------------------------------------------------------|

e|--------------------------------------------------------------------------|
B|-----------------------------------8-------------------8---8--8---8-------|
G|--9--9--7--9-------7---7--7---9----7----9--9---9--9----7---7--7---9-------|
D|-10 10--8-10-------8---8--8--10----8---10-10--10-10----8---8--8--10-------|
A|------------------10--10-10--10--------10-10--10-10---10--10-10--10-------|
E|------------------------------8---------8--8---8--8---------------8-------|

e|--------------------------------------------------------------------------|
B|-5h6-5-3~--3-5h6-5h6-5-3------3-6--5-3--3-5b-5b---------------------------|
G|-------------------------3b-----------------------------------------------|
D|--------------------------------------------------------------------------|
A|--------------------------------------------------------------------------|
E|--------------------------------------------------------------------------|

                                                             (x3)
e|--------------------------------------------------------------|--3--------|
B|--3---3-5~--x-x-5---5-3----------3---3-5~--x-5---5-3----------|--3--------|
G|--3---3-5~--x-x-5---5-3----------3---3-5~--x-5---5-3----------|--3--------|
D|----5-------x-x---5-----5p3---5----5-------x---5-----5p3---5--|--5--------|
A|----------------------------5----------------------------5----|-----------|
E|--------------------------------------------------------------|-----------|

                  (x8)
e|------------------|
B|------------------|
G|------------------|
D|------------------|
A|-----1-1---1------|
E|-1h3-----3---3----|

e|-15----15--------------20b-18r--18brp15-------15--------------------------|
B|-18b~~-18~~-----------------------------18p15----18p15--------------------|
G|------------17rp15--15---------------------------------17brp15----15------|
D|---------------------------------------------------------------17---------|
A|--------------------------------------------------------------------------|
E|--------------------------------------------------------------------------|

e|--------------------15-------15--------------------------------------------|
B|-----------------15----18p15----18p15------------------------------------15|
G|----------15-17b----------------------17brp15----17p15----17p15----15h17---|
D|----15h17-------------------------------------17-------17-------17---------|
A|-17------------------------------------------------------------------------|
E|---------------------------------------------------------------------------|

e|--------------------------15-----------------------------------------------|
B|--18p15-----18p15----18b----18-15------------------------------------------|
G|--------17--------17--------------17-17brp15-17-17-15----------------------|
D|-------------------------------------------------------17\5/17-------------|
A|---------------------------------------------------------------------------|
E|---------------------------------------------------------------------------|

e|----8-8----8-8----8-8----8-8----8-8-------10-10----10-10----10-10----10-10-|
B|-11-8-8-11-8-8-11-8-8-11-8-8-11-8-8-11----11-11----11-11----11-11----11-11-|
G|---------------------------------------12-------12-------12-------12-------|
D|---------------------------------------------------------------------------|
A|---------------------------------------------------------------------------|
E|---------------------------------------------------------------------------|

                        (x10)     (x9)
e|-----------------|-------|-------|-----------------------------------------|
B|-----------------|-------|-------|-----------------------------------------|
G|-12p10-----------|-------|-------|-----------------------------------------|
D|-------12p10----7|8p7h8p7|-8p7p5-|-8/10~-----------------------------------|
A|-----------------|-------|-------|-------7-8-5--8-7--8-5--8-7--8-5--8-7----|
E|-------------12\-|-------|-------|-----------------------------------------|

e|---------------------------------------------------------------------------|
B|---------------------------------8-8/10~-----11-13-13brp11-13p11----11-----|
G|--------------------------7-9-10----------12---------------------12--------|
D|--------------5--7~-8-10---------------------------------------------------|
A|-8-5--8-7--8---------------------------------------------------------------|
E|---------------------------------------------------------------------------|

e|--------15-----------------------------------------------------------------|
B|-----15----18p15----------------------------------------15--18p15----15----|
G|-17b-------------17r-15-17-15-------15----17----15--17b-----------17-------|
D|------------------------------17-17----17----17----------------------------|
A|---------------------------------------------------------------------------|
E|---------------------------------------------------------------------------|

e|----15----15-----15-----15-----15-----15--15-------------------------------|
B|----15----15-----15-----15-----15-----15--15---15--15----------------------|
G|-17b---17b---17b----17b----17b----17b-----17b~-17b-17b-17rp15-17p15-17-15--|
D|---------------------------------------------------------------------------|
A|---------------------------------------------------------------------------|
E|---------------------------------------------------------------------------|

e|---------------------------------------------------------------------------|
B|----------------------------------------------15---------------------------|
G|----------------------------------------15----15-17p15----17-15------------|
D|-17-15-------------------------15-17p15----17----------17-------17---------|
A|-------17\15p13-15----13h15/17---------------------------------------------|
E|-------------------15------------------------------------------------------|

e|---------------------------------------------------15----------------------|
B|---------------------15----15----15----15--------15---18-15----------------|
G|-----15----17-15-----15----15----15----15----17b------------17r-15-17p15---|
D|-17-----17-------17-----17----17----17----17-----------------------------17|
A|---------------------------------------------------------------------------|
E|---------------------------------------------------------------------------|

e|-------------------------20b-20b-20b--20br-18---20-18--------------15------|
B|----------18-20p18----18---------------------20-------20--20-18----15------|
G|-15-17/19----------19-------------------------------------------19---------|
D|---------------------------------------------------------------------------|
A|---------------------------------------------------------------------------|
E|---------------------------------------------------------------------------|

e|---------------------------------------------3-----------------------------|
B|-18-15---------------------------------------3-6-3-------------------------|
G|-------17brp15-17-15--17-17br-15--17p15------3-----5brp3-5~-5~-3---3-5-5b~~|
D|----------------------------------------17\5---------------------5---------|
A|---------------------------------------------------------------------------|
E|---------------------------------------------------------------------------|

e|---------------------------------------------------------------------------|
B|--------------------------------------------------------------------3------|
G|-5b~-5b~-5rp3-5-3----------------------------------------3---5--3-5b-------|
D|------------------5-3---------------------------3-5p3-5----5---------------|
A|----------------------5\3p1-3p1-3~-3~-1---1-3/5----------------------------|
E|----------------------------------------3----------------------------------|

e|---3---------------3---------------------------------3---------------------|
B|-3---6p3---3-6b~~----6-3---------------6b~~-6b~-6b~----6-------------------|
G|---------5---------------5brp3-5p3---3-------------------5brp3-5~----------|
D|-----------------------------------5---------------------------------------|
A|---------------------------------------------------------------------------|
E|---------------------------------------------------------------------------|

e|---------------------8b--8br-6----8-6--------------------------------------|
B|-----------6-8p6---6-----------8------8~-----8-10brp8-10-8---8----10brp8-10|
G|-3---3-5/7-------7-----------------------8/9---------------9----9----------|
D|---5-----------------------------------------------------------------------|
A|---------------------------------------------------------------------------|
E|---------------------------------------------------------------------------|

e|---------------------------------------13-----13--------------------13b----|
B|---8------11-13p11----13p11--------13b----13b----13br-11---13----11--------|
G|-9---/12~----------12-------12--12----------------------12----12-----------|
D|---------------------------------------------------------------------------|
A|---------------------------------------------------------------------------|
E|---------------------------------------------------------------------------|

e|-13p10-13p10----10-------------------------------13---13-13---13-13---13-13--|
B|-------------13----13br-11-13p11----13-11--------13br----13br----13br----13br|
G|---------------------------------12-------12--12-----------------------------|
D|-----------------------------------------------------------------------------|
A|-----------------------------------------------------------------------------|
E|-----------------------------------------------------------------------------|

e|-13-13---13-13---13-13---13-13---13-13---13-13---13-13----------------------|
B|----13br----13br----13br----13br----13br----13br----13br--13r-11-13p11------|
G|-----------------------------------------------------------------------12-12|
D|----------------------------------------------------------------------------|
A|----------------------------------------------------------------------------|
E|----------------------------------------------------------------------------|

                                  (x2)
e|----------------------------------|
B|----------------------------------|
G|----------------------------------|
D|----------------------------------|
A|---1-3-3-1-3p1-3------1-1---1-----|
E|-3----------------1h3-----3---3---|

e|---------------3--------------------5----------------------------3---------|
B|-5/6~--5-6-5------------------5/6~~---5h6-5~---------6~--5-6-5-------------|
G|------------------5rp3---3--------------------5rp3-----------------5rp3----|
D|-----------------------5---5-----------------------5--------------------5--|
A|---------------------------------------------------------------------------|
E|---------------------------------------------------------------------------|

e|---------------------------------13-----------------------------------15---|
B|-5h6~~-5-6-5--6--8--10-11--13b~~----13b-13r---13rp11----11---------15------|
G|-----------------------------------------------------12----12--17b---------|
D|---------------------------------------------------------------------------|
A|---------------------------------------------------------------------------|
E|---------------------------------------------------------------------------|

e|---------15-------------15-15-15-------------------------------------------|
B|-18b-18b----------------------15-------------------------------------------|
G|------------17rp15------15-17----17p15-------------------------------------|
D|--------------------17-----------------17----------------------------------|
A|---------------------------------------------------------------------------|
E|---------------------------------------------------------------------------|

e|---------------------------------------------------------------------------|
B|--3---3-5~--x-x-5---5-3----------3---3-5~----------------------------------|
G|--3---3-5~--x-x-5---5-3----------3---3-5~---5brp3--5-3---------------------|
D|----5-------x-x---5-----5p3---5----5-------------------5-3-----------------|
A|----------------------------5------------------------------5p4p3-1--/5-----|
E|-------------------------------------------------------------------3-------|


e|--15--15-15--15-15--15-15--15-15--15-15--15-15-----------------------------|
B|-----------------------------------------------------------3-x-3-5~--------|
G|------15-17--17-15--17-17--17-15--17-17--17-17--17rp15-----3-x-3-5~--------|
D|--17---------------------------------------------------17------------------|
A|---------------------------------------------------------------------------|
E|---------------------------------------------------------------------------|

e|-----------3--3-3--3--3-3--3--3-3---15--15-15--15--15-15--15--15-15--------|
B|-5-x-5-3---3--3-3--3--3-3--3--3-3---15--15-15--15--15-15--15--15-15--------|
G|-5-x-5-3---3--3-3--3--3-3--3--3-3---15--15-15--15--15-15--15--15-15--------|
D|---------5-5--5-5--5--5-5--5--5-5------------------------------------------|
A|---------------------------------------------------------------------------|
E|---------------------------------------------------------------------------|

e|-18--18-18--18--18-18--18--18-18---5--5-5--5----------3-3------------------|
B|-20--20-20--20--20-20--20--20-20---3--3-3--3--6-6--5--3-3------8-8---------|
G|-19--19-19--19--19-19--19--19-19---3--3-3--3--3-3--3--3-3------7-7---------|
D|-20--20-20--20--20-20--20--20-20-------------------------------8-8---------|
A|---------------------------------------------------------------------------|
E|---------------------------------------------------------------------------|



************************************

| p   Pull-off
| /   Slide up
| h   Hammer-on
| ~   Vibrato
| \   Slide down
| b   Bend
| x   Dead note
| r   Release
| br  Bend release

************************************

            
            
Suggest correction
Creating personal tab
Creating personal tab
You can edit any tab online and save it as your Personal.

You can edit, replace or remove any tab part or add personal notes – all changes will be seen only by you.

Personal tabs can be accessed anytime from any device, even offline.
Learn more »
Give kudos to tab author, rate the tab!
1 2 3 4 5
comments
print report bad tab
guest
You may want to rate the tab now too:
select rating
Wanna post a correction for this tab? Suggest correction