Oops, an error
Loading. Please wait.

Se Acabo Tab

version 2
version 2

Whole song

145 views 12 this week
no commentswrite comment
1 2 3 4 5
3 more votes to show rating
add to favorites
launch autoscroll
font size
0
reset
how to read this tab
guitar tuner
Autoscroll
slow
fast
+/-
esc
set tempo
stop
Help us to improve Ultimate-Guitar.com Take our survey!
×
Hola q tal, soy Lualanmi, y aquí les traigo
algo de Santana. Cualquier me la hacen llegar a Youtube:

Salu2


____________
Intro:
 Guitar I (Keyboard Tab for Guitar)
|------------------------------|------------------------------|
|------------------------------|------------------------------|
|-------5------8-5---5-5-------|-------5------8-5---5-5-------|
|---6-8------------8--8--------|---6-8------------8--8--------|
|-8----------------------------|-8----------------------------|
|------------------------------|------------------------------|
|                                                             |
|                                                             |
|Guitar II                                                    |
|------------------------------|------------------------------|
|------------------------------|------------------------------|
|----------10------------10-12-|----------10------------10-12-|
|----------10------------10-12-|----------10------------10-12-|
|----------8-------------8-----|----------8-------------8-----|
|------------------------------|------------------------------|

 Guitar I (Keyboard Tab for Guitar)
|-------------------------------|-------------------------------|
|-------------------------------|-------------------------------|
|--------------6----------------|--------------6----------------|
|---5-6-8--------8-6-8p6-8------|---5-6-8--------8-6-8p6-8------|
|-6-----------------------------|-6-----------------------------|
|-------------------------------|-------------------------------|
|                                                               |
|                                                               |
|Guitar II                                                      |
|-------------------------------|-------------------------------|
|----------7/8------------------|----------7/8------------------|
|----------7/8-------------8--8-|----------7/8-------------8--8-|
|----------7/8-------------8--8-|----------7/8-------------8--8-|
|--------------------------6--6-|--------------------------6--6-|
|-------------------------------|-------------------------------|

 Guitar I (Keyboard Tab for Guitar)
|-------------------------------------|-13-13---11----11--------------|
|--------------------6----------------|------------13----13-11--13----|
|-------5------8-5-8---8-5-8--5-------|----------------------------13-|
|---6-8-------------------------------|-------------------------------|
|-8-----------------------------------|-------------------------------|
|-------------------------------------|-------------------------------|
|                                                                     |
|                                                                     |
|Guitar II                                                            |
|-------------------------------------|-------------------------------|
|-------------------------------------|-------------------------------|
|----------10-------------------10-12-|----------10------------10-12--|
|----------10-------------------10-12-|----------10------------10-12--|
|----------8--------------------8-----|----------8-------------8------|
|-------------------------------------|-------------------------------|

 Guitar I (Keyboard Tab for Guitar)
|-------------------------------|------------------------------------|
|-------------------------------|--------------------11-11-14-14-11--|
|--------------6----------------|--------------6-----10-10-13-13-10--|
|---5-6-8--------8-6-8p6-8------|---5-6-8--------8-6-8--8--11-11-8---|
|-6-----------------------------|-6----------------------------------|
|-------------------------------|------------------------------------|
|                                                                    |
|                                                                    |
|Guitar II                                                           |
|-------------------------------|------------------------------------|
|----------7/8------------------|----------7/8-----------------------|
|----------7/8-------------8--8-|----------7/8-------8--8--11-11-8---|
|----------7/8-------------8--8-|----------7/8-------8--8--11-11-8---|
|--------------------------6--6-|--------------------6--6--9--9--6---|
|-------------------------------|------------------------------------|

|---------------------------------|
|---------------------------------|
|-10-x--10-----8-10-8------8---8--|
|-10-x--10-----8-10-8------8-6-8--|
|-8--x--8---11--------11-8-----6--|
|---------------------------------|

Guitar work for Organ Solo:
|------------------------------------|------------------------------------|
|------------------------------------|------------------------------------|
|-10-8------8-------10-8------8------|-10-8------8-------10-8------8------|
|-10-8------8-------10-8------8------|-10-8------8-------10-8------8------|
|------11-8---11-8-------11-8---11-6-|------11-8---11-8-------11-8---11-6-|
|------------------------------------|------------------------------------|

Guitar Solo:
|-----------------------------------------------------------------------|
|-----------------------------------------------------------------------|
|-8h10-----p8h10p8---------------10p8----12p8----10b8-------------------|
|------------------10------9b10-------10------10------10----8-10p8------|
|--------------------------------------------------------11--------11-8-|
|-----------------------------------------------------------------------|

|-----------------15-16-18----18p15----15-18p15----15-18p15----15-18p15-|
|--------------16-------------------17----------17----------17----------|
|--------------15-------------------------------------------------------|
|---------1-/--13-------------------------------------------------------|
|-----1h3---------------------------------------------------------------|
|-3h4-------------------------------------------------------------------|

|-18p13----13-18p13----18b20b18--------18-------16----15-----------------|
|-------15----------15-----------18-18-------18----16----13--------------|
|-----------------------------------------------------------15b17~b15----|
|---------------------------------------------------------------------15-|
|------------------------------------------------------------------------|
|------------------------------------------------------------------------|

|--------------------------------------------------------|
|--------------------------------------------------------|
|-10-8------8-------10-8------8---------10-8------8------|
|-10-8------8-------10-8------8---------10-8------8------|
|------11-8---11-6-------11-8---11-6h8-------11-8---11-6-|
|--------------------------------------------------------|

|--------------------------------------------------------|
|--------------------------------------------------------|
|-10-8------10-8------10-8------10-8------10-8-----------|
|-10-8------10-8------10-8------10-8------10-8-----------|
|------11-8------11-8------11-8------11-8------11-8-86--|
|--------------------------------------------------------|

Drums Solo

|--------------|--------------|
|--------------|--------------|
|-10--8--10-10-|-10--8--10-10-|
|-10--8--10-10-|-10--8--10-10-|
|-8---6--8--8--|-8---6--8--8--|
|--------------|--------------|

  Se A Cabo      Se A Cabo      Se A Cabo      Se A Cabo
|--------------|--------------|--------------|--------------|
|--------------|--------------|--------------|--------------|
|-10--8--10-10-|-10--8--10-10-|-10--8--10-10-|-10--8--10-10-|
|-10--8--10-10-|-10--8--10-10-|-10--8--10-10-|-10--8--10-10-|
|-8---6--8--8--|-8---6--8--8--|-8---6--8--8--|-8---6--8--8--|
|--------------|--------------|--------------|--------------|

|-------8-----|
|-6-9p6---6-9-|
|-------------|
|-------------|
|-------------|
|-------------|

  Se A Cabo      Se A Cabo
|--------------|--------------|
|--------------|--------------|
|-10--8--10-10-|-10--8--10-10-|
|-10--8--10-10-|-10--8--10-10-|
|-8---6--8--8--|-8---6--8--8--|
|--------------|--------------|

|-------8-8-8-|
|-6-9p6-9-9-9-|
|--------------|
|--------------|
|--------------|
|--------------|

Outro:
|------------------------------|------------------------------|
|------------------------------|------------------------------|
|----1-----0----1--------------|----1-----0----1--------------|
|-3------1----3--------1-----1-|-3------1----3--------1-----1-|
|------3----------1-3----1h3---|------3----------1-3----1h3---|
|------------------------------|------------------------------|

|------------------------------|------------------------------|
|------------------------------|------------------------------|
|----1-----0----1--------------|----1-----0----1--------------|
|-3------1----3--------1-----1-|-3------1----3--------1-----1-|
|------3----------1-3----1h3---|------3----------1-3----1h3---|
|------------------------------|------------------------------|

|--------------|--------------|----------------------|
|--------------|--------------|----------------------|
|-10--8--10-10-|-10--8--10-10-|-10--8--10-10----10---|
|-10--8--10-10-|-10--8--10-10-|-10--8--10-10----10---|
|-8---6--8--8--|-8---6--8--8--|-8---6--8--8-----8----|
|--------------|--------------|----------------------|
Suggest correction
Give kudos to tab author, rate the tab!
1 2 3 4 5
comments
print report bad tab
guest
You may want to rate the tab now too:
select rating
Wanna post a correction for this tab? Suggest correction