Oops, an error
Loading. Please wait.

This Boy's Fire Tab

191 views 1 this week
1 commentread comment
1 2 3 4 5
3 more votes to show rating
add to favorites
launch autoscroll
font size
0
reset
how to read this tab
guitar tuner
Autoscroll
slow
fast
+/-
esc
set tempo
stop
Help us to improve Ultimate-Guitar.com Take our survey!
×
INTRO

|-------11-11-11-11-12-11----11-----------11-11-11-11-14-12-11-----11|
|----12-------------------14-----------12-----------------------14---|
|-13--------------------------------13-------------------------------|
|--------------------------------------------------------------------|
|--------------------------------------------------------------------|
|--------------------------------------------------------------------|

|-------11-11-11-11-12-11------------------11------------------------|
|----12---------------------14-12----12-12----14-12-11-12------------|
|-13-------------------------------------------------------13--------|
|--------------------------------------------------------------------|
|--------------------------------------------------------------------|
|--------------------------------------------------------------------|

I believe in never let my strip get hotter
Than something I can get out of
One that heats up on me
I told 'em this would be a once time dance
Meaning one time chance
After I said that, oh
That's when he got close to me
All the other music stopped but the violin
Conversation, one dance, sip a bottle of the best
Now I'm asking myself "what has he done to me?"

This can't turn into love, no
The rose petals were all in the air
Just might need that firetruck
To come and get me


Chorus:
Dip me in water
'Cause this boy's fire
It's got a hold of me

Can't say I don't want it
'Cause he really put it on me
In a way that I don't know
If I'm going or coming

Dip me in water
'Cause this boy's fire
It's got a hold of me

Didn't have to know from your body
Put it on me
Not just physically but mentally, andale, on me

Riff 1 (00:00:18)

|------------------------|
|------------------------|
|-6h8p6-4-6-8------------|
|------------------------|
|------------------------|
|------------------------|

Riff 2 (00:00:23)

|------------------------|
|------------------------|
|-6h8p-4-6-4-------------|
|------------------------|
|------------------------|
|------------------------|

Riff 3 (00:00:47)

|----------------11----11--------------------|
|-14h16p14-12-14----14----14-12-11-12-11-----|
|----------------------------------------13--|
|--------------------------------------------|
|--------------------------------------------|
|--------------------------------------------|

Riff 4 (00:00:57)

|-14h16p14-12-11-12-14-12---11h12p11-------------|
|------------------------------------14-12-------|
|-------------------------------------------13---|
|------------------------------------------------|
|------------------------------------------------|
|------------------------------------------------|

(Intro)

Gotta call a cab
If I don't need gonna have me
With every young stunna in the hood wanna have me
Uh, so much of him I couldn't surrender
'Cause I know where this could end up
And with that right now I can't play
I know I drive him loco
But that's just the way
You make a mama's hips go

This can't turn into love, no
The rose petals were all in the air
Just might need that firetruck
To come and get me

Chorus

Riff 1 (00:01:20)

|------------------------|
|------------------------|
|-6h8p6-4-6-8------------|
|------------------------|
|------------------------|
|------------------------|

Riff 2 (00:01:25)

|------------------------|
|------------------------|
|-6h8p-4-6-4-------------|
|------------------------|
|------------------------|
|------------------------|

Riff 3 (00:01:43)

|----------------11----11--------------------|
|-14h16p14-12-14----14----14-12-11-12-11-----|
|----------------------------------------13--|
|--------------------------------------------|
|--------------------------------------------|
|--------------------------------------------|

Riff 4 (00:01:53)

|-14h16p14-12-11-12-14-12---11h12p11-------------|
|------------------------------------14-12-------|
|-------------------------------------------13---|
|------------------------------------------------|
|------------------------------------------------|
|------------------------------------------------|


Solo

|-------11-11-11-11-12-11----11-----------11-11-11-11-14-12-11-----11|
|----12-------------------14-----------12-----------------------14---|
|-13--------------------------------13-------------------------------|
|--------------------------------------------------------------------|
|--------------------------------------------------------------------|
|--------------------------------------------------------------------|

|-------11-11-11-11-12-11------------------11------------------------|
|----12---------------------14-12----12-12----14-12-11-12------------|
|-13-------------------------------------------------------13--------|
|--------------------------------------------------------------------|
|--------------------------------------------------------------------|
|--------------------------------------------------------------------|

|11-11-11-11-11-----------11-11-11-11--------------------------------|
|12-12-12-12-12-14-12-11--12-12-12-12--12h14p12----------------------|
|-----------------------------------------------13-------------------|
|--------------------------------------------------------------------|
|--------------------------------------------------------------------|
|--------------------------------------------------------------------|

|151515--161616-171717-181818-191919-20-------------|
|---------------------------------------------------|
|121212--131313-141414-151515-161616-17-------------|
|---------------------------------------------------|
|---------------------------------------------------|
|---------------------------------------------------|

Baby Bash

Chorus

00:03:16 Tocar Intro

Esta es la primera tablatura que hago , esta bien facil de tocar
cualquier cosa mi mail es danieltabs@
Suggest correction
Give kudos to tab author, rate the tab!
1 2 3 4 5
comments
print report bad tab
1 comment total.
0 reply
valush.fl 10 Oct 11, 2015 02:43 PM

little changes int he intro

|-------11-11-11-11-11-12-11----11-----------11-11-11-11-11-14-12-11-----11|
|----12----------------------14-----------12--------------------------14---|
|-13-----------------------------------13----------------------------------|
|--------------------------------------------------------------------------|
|--------------------------------------------------------------------------|
|--------------------------------------------------------------------------|

|-------11-11-11-11-11-12-11----------------11-------------------------|
|----12----------------------14-12----12-12----14-12-11-12-------------|
|-13-------------------------------------------------------13-13-------|
|----------------------------------------------------------------------|
|----------------------------------------------------------------------|
|----------------------------------------------------------------------|

guest
You may want to rate the tab now too:
select rating
Wanna post a correction for this tab? Suggest correction