Oops, an error
Loading. Please wait.

Trane Tab

78 views 1 this week
no commentswrite comment
1 2 3 4 5
3 more votes to show rating
add to favorites
launch autoscroll
font size
0
reset
how to read this tab
guitar tuner
×
Best way to learn
"Trane"
Autoscroll
slow
fast
+/-
esc
set tempo
stop
riff A
                             ^ ^             ^ ^ 
e----7--------8--------5---5-7-7------555--5-7-7--------------
B----8--------8--------6---6-8-8------666--6-8-8-------------- 
G----7--------7--------5---5-7-7------555--5-7-7-------------- X2
D----------------------7---7-9-9------777--7-9-9-------------- 
A------------------------------------------------------------- 
E------------------------------------------------------------- 


riff B
E----------------------------------------------------------- 
B----------------------------------------------------------- 
G----------------------------------------------------------- 
D--3-2-0----------------------3-2-0-------------3-3--------- 
A--------3-2-0-------3-----3--------3-2-0-----------3------- 
E--------------3-1-1---1-1----------------3-1-1------------- 


E----------------------------------------------------------- 
B----------------------------------------------------------- 
G----------------------------------------------------------- 
D--3-2-0----------------------3-2-0-3-2-0-3-2-0-3-2-0-3----- 
A--------3-2-0-------3-----3-------------------------------- 
E--------------3-1-1---1-1---------------------------------- 


Solo
E------------------------------------------------------------------- 
B----------------------------/12-10------/12-10---------------------
G-7-7-7-7-7-10--12-12---------------12----------12-10-9------------- 
D-------------------------------------------------------12-10-------
A-------------------------------------------------------------12-10\
E-------------------------------------------------------------------

        ^         ^
E----------------------------------------------------------- 
B----------------------------3---3-6-3-6-8-8----------------
G-0-0-0-3---0-0-0-5--3-5-3-5---5----------------------------
D----------------------------------------------------------- 
A----------------------------------------------------------- 
E----------------------------------------------------------- 


E-10---10---10----12r10-8--------------17r15b17r15b17rb15-15- 
B----10---10---10---------10-8------------------------------ 
G----------------------------------------------------------- 
D----------------------------------------------------------- 
A----------------------------------------------------------- 
E----------------------------------------------------------- 


E-17r15b17r15-13-----------17r15b17r15---17r15----17r15-----
B-----------------15-15------------------------------------- 
G----------------------------------------------------------- 
D----------------------------------------------------------- 
A----------------------------------------------------------- 
E----------------------------------------------------------- 


E----------------------------------------------------------- 
B-13-15-13-14-12-12----12-12-12\----------------------------
G----------------------------------------------------------- 
D----------------------------------------------------------- 
A----------------------------------------------------------- 
E----------------------------------------------------------- 


E----------------------------------------------------------- 
B------------------3-5-3---3--------------------------------
G-5--4-5--4-5--4-5-------5---0-0-0--------------------------
D----------------------------------------------------------- 
A----------------------------------------------------------- 
E----------------------------------------------------------- 


E----------------------------------------12-10-------------- 
B------------------3-5-3---3-3-3---------------13----------- 
G-5--4-5--4-5--4-5-------5---------------------------------- 
D----------------------------------------------------------- 
A----------------------------------------------------------- 
E----------------------------------------------------------- 


E-------------------------------------------------15-17-15-- 
B-------------------------15-17-15----15------------------17
G-17--16-17--16-17--16-17----------17-----------------------
D----------------------------------------17-17--------------
A----------------------------------------------------------- 
E----------------------------------------------------------- 


E-----------------------------------------------------------
B-------------------------15-17-15-------15--15--15---------
G-17--16-17--16-17--16-17----------------18r1718r1718r17----
D-----------------------------------------------------------
A----------------------------------------------------------- 
E----------------------------------------------------------- 


E-18-18----18-18---18-18-15----15-15-15---------------------
B---------------------------18------------------------------ 
G----------------------------------------------------------- 
D----------------------------------------------------------- 
A----------------------------------------------------------- 
E----------------------------------------------------------- 


E-18-18----18-18---18-18-15----15-15-15-15\-----------------
B---------------------------18------------------------------ 
G----------------------------------------------------------- 
D----------------------------------------------------------- 
A----------------------------------------------------------- 
E----------------------------------------------------------- 

(organ Part)
E----------------------------------------------------------- 
B----------------------------------------------------------- 
G------3---------------------3------------------------------ 
D--5-5---5-4-3---3-3-3-5-5-5---5-4-3------------------------ 
A----------------------------------------------------------- 
E----------------------------------------------------------- 

repeat riff B
end on riff A
Suggest correction
Give kudos to tab author, rate the tab!
1 2 3 4 5
comments
print report bad tab
guest
You may want to rate the tab now too:
select rating
Wanna post a correction for this tab? Suggest correction