Oops, an error
Loading. Please wait.

Treat tab

version 2
version 2

Whole song

by Santana
870 views 1 this week
no commentswrite comment
1 2 3 4 5
3 more votes to show rating
add to favorites
×
Save as Personal and add changes to this tab that will be seen only by you. Learn more ›
×
You can save this tab as Personal to edit and correct it or add notes. All changes will be seen only by you. Learn more »
launch autoscroll
font size
0
reset
how to read this tab
guitar tuner
edit
Autoscroll
slow
fast
+/-
esc
set tempo
stop
Author
Difficulty
SANTANA - TREAT

this is the 6:49 length version!!

h=hammer-on
p=pull-off
/=slide-up
\=slide-down
^=bend
*(notes here)* followed by (*x2,4,etc)= a chosen portion of the measure which is 
repeated however many times mentioned 

INTRO--During piano part:

      Gm  CMaj    Gm  CMaj...
e|--3---3-------3---3----------------3---3-|
B|--3---5-------3---5----------------3---5-|
G|--3---5-------3---5----------------3---5-|
D|--5---5-------5---5------3h5-------5---5-|
A|--5---3-------5---3----------3h5---5---3-|
E|--3-----------3--------------------3---3-|

e|-------3---3----------------------3---3-|
B|-------3---5----------------------3---5-|
G|-------3---5----------------------3---5-|
D|-------5---5------3h5-3-----------5---5-|
A|-5-3---5---3------------3h5-5-5---5---3-|
E|-------3--------------------------3-----|

e|-------3---3-|--3---3--|--3---3--|--3---3--|
B|-------3---5-|--3---5--|--3---5--|--3---5--|
G|-------3---5-|--3---5--|--3---5--|--3---5--|
D|-------5---5-|--5---5--|--5---5--|--5---5--|
A|-3h5---5---3-|--5---3--|--5---3--|--5---3--|
E|-------3-----|--3------|--3------|--3------|

|-------3---3-|		e|------------3--3---3-|
|-------3---5-| 	B|------------3--3---5-|
|-------3---5-|		G|------------3--3---5-|
|-------5---5-|		D|---3h5------5--5---5-|
|-3h5---5---3-|		A|-5-----3h5--5--5---3-|
|-------3-----|		E|------------3--3-----|



GUITAR SOLO:
e-------------------------------------------|------------------------------|
B---8h10~~---11-10---8--10----6--8----5--6--|---6-6-----5------------------|
G-------------------------------------------|--------7-----5-7-----5-------|
D-------------------------------------------|-------------------8----------|
A-------------------------------------------|------------------------------|
E-------------------------------------------|------------------------------|

e------------------------------------------------------|
B---11h10--8--10--11h10--8--10--11h10--8--10--11h10----|
G------------------------------------------------------|
D------------------------------------------------------|
A------------------------------------------------------|
E------------------------------------------------------|

e---------------------------------------------------------|
B---8--10--11p10p8h10h11p10p8h10h11p10p8h10h11p10p8-------|
G---------------------------------------------------------|
D---------------------------------------------------------|
A---------------------------------------------------------|
E---------------------------------------------------------|

e--6h8--8h10p8-----8-|---------------------------|---------------------------------|
B---------------11---|-8--11--8--10--6--8--6-----|--------10--10p8-----------------|
G--------------------|------------------------7--|-7-9-10-----------10--7--10p9p7--|
D--------------------|---------------------------|---------------------------------|
A--------------------|---------------------------|---------------------------------|
E--------------------|---------------------------|---------------------------------| 
e------------------|--------------|---------------------------------------------------|
B----------8---10--|-11-10--11-10-|-11-10--11p10--11p10--11p10--11p10--11p10--11p10p8-|
G--7-9-10----7-----|--------------|---------------------------------------------------|
D------------------|--------------|---------------------------------------------------|
A------------------|--------------|---------------------------------------------------|
E------------------|--------------|---------------------------------------------------|

e----------------------------------|----------------------------------------------|
B---11--10--8----------------------|--*8h10h11*-(*x4)--/13--13-/15---15-/17--17---|
G--------------10---7/9\7----------|----------------------------------------------|
D--------------------------8-------|----------------------------------------------|
A----------------------------------|----------------------------------------------|
E----------------------------------|----------------------------------------------|

e--15---17--15---------------------------------|
B---------------18--17--15--17--15-------------|
G-----------------------------------15-17\\\\--|
D----------------------------------------------|
A----------------------------------------------|
E----------------------------------------------|

e-------------------------------|
B-------------------------------|
G---7---10-9-7-----------7------|
D-------------10--8--10----8-8--|
A-------------------------------|
E-------------------------------|

e--15--17--17p15-------------------------------------|
B-----------------18--17--15--17--15-----------------|
G-------------------------------------15-17--15\\\\--|
D----------------------------------------------------|
A----------------------------------------------------|
E----------------------------------------------------|


e-----------------------------------------------------|
B---10-9-8--------------------------------------------|
G-----------10-9-7------------------------------------|
D--------------------9h11-10-8------------------------|
A--------------------------------10-8-----------------|
E--------------------------------------10-8-10--------|

e-------------------------------------------------------|
B-------------------------------------------------------|
G-------------------------------------------------------|
D-----8----8----8--8h10--10-10--10p8--8h10h11p10p8------|
A--10---10---10------------------------------------10---|
E-------------------------------------------------------|

e------------------------------------------------|
B------------------------------------------------|
G------------------------------------------------|
D-----8----8----8--10--8h10h11--8~~--10h11--8----|
A--10---10---10----------------------------------|
E------------------------------------------------|

e------------------------------------|
B--------8-----10----11--11^13--8-11-|
G------------------------------------|
D--10-8-----8-----10-----------------|
A------------------------------------|
E------------------------------------|
e----------------------------|-----------------------------------------------------|
B---10-10-10-10-10-10-10-10--|-10---8------10---8----10---8------8/10--10-10-10-10-|
G----------------------------|----10--10------10--10----10--10---------------------|
D----------------------------|-----------------------------------------------------|
A----------------------------|-----------------------------------------------------|
E----------------------------|-----------------------------------------------------|

e----------------------------------------|
B----8--10--11--13--15--17-18-20--22p20--| 
G--7-------------------------------------|
D----------------------------------------|
A----------------------------------------|
E----------------------------------------|

e-------------17--15------------------------------------|
B--15--17--18--------17--18--15--17----------15---------|
G------------------------------------15--17------15-----|
D----------------------------------------------------17-|
A-------------------------------------------------------|
E-------------------------------------------------------|

e--17p15-(x11)--17/20--20^22~--*22*(*x7)--20-20-18-17--15-17-----------|
B------------------------------------------------------------15-17-18--|
G----------------------------------------------------------------------|
D----------------------------------------------------------------------|
A----------------------------------------------------------------------|
E----------------------------------------------------------------------|

e--17--19^20^19----17--19h20--20--20--18--17-|
B--------------------------------------------|
G--------------------------------------------|
D--------------------------------------------|
A--------------------------------------------|
E--------------------------------------------|

e---18p17p15-17(x4)---|--15--*17--18p17p15*-(*x6)|
B---------------------|--------------------------|
G---------------------|--------------------------|
D---------------------|--------------------------|
A---------------------|--------------------------|
E---------------------|--------------------------|

e---18p17p15---------------17---18---17---15----|
B-------------18p15-17--------------------------|
G-----------------------------------------------|
D-----------------------------------------------|
A-----------------------------------------------|
E-----------------------------------------------|

e---18p17--17-17--15-15--------------------------------------|
B-----------------------18-18--17-15-------------------------|
G-------------------------------------17^-17^--15-----15-----|
D--------------------------------------------------17-----17-|
A------------------------------------------------------------|
E------------------------------------------------------------|


e---------------------------------------------------|
B-----*15~~--15------17-17--15-17--17p15------------|
G------------------------------------------15-------|
D---17-----------17----------------------------17*--|
A---------------------------------------------------|
E---------------------------------------------------|(*x3)
e----------------------------------|---*18p17p15------------------|
B--15----17-18--20--20/22--22-22---|-------------18p17p15*-(*x8)--|
G----------------------------------|------------------------------|
D----------------------------------|------------------------------|
A----------------------------------|------------------------------|
E----------------------------------|------------------------------|

e--17-17-17-15-15---------------|
B-----------------18-18--17-17--|
G-------------------------------|
D-------------------------------|
A-------------------------------|
E-------------------------------|

e--------------17--15--13--15--------------------------------------------|
B--15--17--18-----------------18--17---17-15-----------------------------|
G---------------------------------------------17^19--17^19---15----15----|
D---------------------------------------------------------------17----17-|
A------------------------------------------------------------------------|
E------------------------------------------------------------------------|

e-----------------------------------------------|
B--------15*-(*x5)--15-15---18-18---17-17--15---|
G---*17^----------------------------------------|
D-----------------------------------------------|
A-------------------------------|
E-------------------------------|

e-----15----17-|-----17----18--|----15---17---18---18--18^20---20-20-20^18--15---|
B--15----15----|-15-----15-----|--15---15---15-----------------------------------|
G--------------|---------------|-------------------------------------------------|
D--------------|---------------|-------------------------------------------------|
A--------------|---------------|-------------------------------------------------|
E--------------|---------------|-------------------------------------------------|

e----*18p17p15-------------------|--17--17---------------------------------|
B---------------18p17p15*-(*x8)--|----------18-15--------------------------|
G--------------------------------|-----------------17^18^17---15----15-----|
D--------------------------------|-------------------------------17----17--|
A--------------------------------|-----------------------------------------|
E--------------------------------|-----------------------------------------|

e-------------------------------------------|
B---------15--------------------------------|
G---15----15----15---15--15----15----15-----|
D---15----------15---15--15-------17----17--| 	END OF GUITAR SOLO
A-------------------------------------------|
E-------------------------------------------|

e---*3---3\-----3--3--3----1--1//*-------|
B---*3---3\-----5--5--5----1--1//*-------|
G---*3---3\-----5--5--5----1--1//*-------|
D---*5---5\-----5--5--5----3--3//*-------|
A---*5---5\-----3--3--3----3--3//*-------|
E---*3---3\----------------1--1//*-------|(*x6)

During piano part:
e|--3---3-------3---3------------3---3-|
B|--3---5-------3---5------------3---5-|
G|--3---5-------3---5------------3---5-|
D|--5---5-------5---5------------5---5-|
A|--5---3----5--5---3------------5---3-|
E|--3-----------3----------------3---3-|
SLOWER TEMPO piano part

(listen closely)
e-------------------------------|
B-------------------------------|
G-------------------------------|
D--(trill)3h5-3h5-3h5...--------|
A-------------------------------|
E-------------------------------|

e------------------|-------------------------------------|
B------------------|-------------------------------------|
G--10/12~~--12/14--|--------10/12~--12/14~--15p14p12-----|
D------------------|--10h12---------------------------12-|
A------------------|-------------------------------------|
E------------------|-------------------------------------|

e---------------------|------------|
B---------------------|------------|
G---10/12~-----14--10-|----10--12~-|
D----------12---------|-10---------|  END
A---------------------|------------|
E---------------------|------------|

            
            
Suggest correction
Creating personal tab
Creating personal tab
You can edit any tab online and save it as your Personal.

You can edit, replace or remove any tab part or add personal notes – all changes will be seen only by you.

Personal tabs can be accessed anytime from any device, even offline.
Learn more »
Give kudos to tab author, rate the tab!
1 2 3 4 5
comments
print report bad tab
guest
You may want to rate the tab now too:
select rating
Wanna post a correction for this tab? Suggest correction