Oops, an error
Loading. Please wait.

6:00 Am Tab

version 2
version 2

Whole song

104 views 1 this week
no commentswrite comment
1 2 3 4 5
3 more votes to show rating
add to favorites
launch autoscroll
font size
0
reset
how to read this tab
guitar tuner
×
Best way to learn
"6:00 Am"
Autoscroll
slow
fast
+/-
esc
set tempo
stop
Miren esto que es IMPORTANTEEEEEEE!!!!!!!!!! antes de
iniciar la cancion miren el acorde G pero en su sexta
posicion que es similiar al acorde original,
el verdadero acorde es un La menor Aug5 es asi:

LAm aug5 (Bmaug5)

e----|----|----|----|----|----|----|---------
b----|----|--3-|----|----|----|----|---------
g----|----|----|--4-|----|----|----|---------
d----|----|----|----|--5-|----|----|---------
a----|----|----|----|----|----|----|---------
E----|----|----|----|----|----|----|---------

INTRO

----9/10----9--5--2---x-2-2-x------x-2-2--x--0-0--x---3--3--x
--------------------3-x-3-3-x------x-3-3--x--3-3--x---4--4--x
----10/11---9--6--2---x-2-2-x------x-0-0--x--0-0--x---5--5--x
-0--------------------------x------x------x-------x---------x
----------------------------x------x------x-------x--0------x
------------------------2---x--0-3-x-3----x--0----x---------x

-----9/10--9--5--2---x-2-2-x------x-2-2-x-2-2-x-0-0-x---3-3-e
-------------------3-x-3-3-x------x-3-3-x-3-3-x-3-3-x---4-4-b
----10/11--9--6--2---x-2-2-x------x-0-0-x-2-2-x-0-0-x---5-5-g
--0------------------------x------x-----x-----x-----x-------D
-0-------------------------x------x-----x-----x-----x--0----A
-----------------------2---x--0-3-x-3---x-2---x-0---x-------E

D                  D/F#
Un suave rayo de luz
                 Gmaj7
se va metiendo por la ventana
               G
son las 6 de la mañana
                        D
y tú estas pegadita a mí

                   D/F#
No quiero ni respirar
                       Gmaj7
por miedo a levantarte del sueño
                 G
y te des cuenta que contemplo
                      D
lo que Dios me entregó


D                     Gmaj7
La vida estuvo de mi lado
Bm                   G
parece haberse enderezado
                D
mi camino por ti


D                     Gmaj7
El día apenas ha empezado
Bm                   G
y yo no sé si estoy soñando


Dmaj7
Duerme Un poco más
Fm
Hazme imaginar que a mi lado
Gmaj7                  G
es donde encuentras tu paz

Dmaj7
Duerme un poco más
Fm
duérmete y quizás
Gmaj7                  G
mientras duermes sea capaz de curar
Em7               D
los dolores de tu vida

Gmaj7       D      E    G   D
Duerme... duerme un poco más


Un suave rayo de luz.../otra vez desde el comienzo, espero les guste.
Suggest correction
Give kudos to tab author, rate the tab!
1 2 3 4 5
comments
print report bad tab
guest
You may want to rate the tab now too:
select rating
Wanna post a correction for this tab? Suggest correction