Oops, an error
Loading. Please wait.

Si No Te Vuelvo A Ver tab

61 views 1 this week
no commentswrite comment
1 2 3 4 5
3 more votes to show rating
add to favorites
×
Save as Personal and add changes to this tab that will be seen only by you. Learn more ›
×
You can save this tab as Personal to edit and correct it or add notes. All changes will be seen only by you. Learn more »
launch autoscroll
font size
0
reset
how to read this tab
guitar tuner
edit
Autoscroll
slow
fast
+/-
esc
set tempo
stop
Author
Difficulty
[Intro]

e|----------------------|--------------------------|----------------------|
B|-----------------1----|--0---------0h--1--0h--1--|-----------------1----|
G|------------2---------|-------2------------------|------------2---------|
D|-------2--------------|--------------------------|-------2--------------|
A|--0-------------------|--------------------------|--0-------------------|
E|----------------------|--------------------------|----------------------|


[Verso 1]

                                  Tendre frio en cada hueso
e|-------------------------|--0------------------|-----------------1----|
B|-0---------0h--1--0h--1--|--1------------------|------------3---------|
G|------2------------------|--2------------------|-------2--------------|
D|-------------------------|--2------------------|--0-------------------|
A|-------------------------|--0------------------|----------------------|
E|-------------------------|---------------------|----------------------|

                                                  perdera sentido todo
e|--0---------0h----1----|-----------------0----|-----------------0----|
B|-------3---------------|------------1---------|------------1---------|
G|-----------------------|-------2--------------|-------2--------------|
D|-----------------------|--3-------------------|--3-------------------|
A|-----------------------|----------------------|----------------------|
E|-----------------------|----------------------|----------------------|

                   por lo que alguna vez luche              sera el fin
e|-----------------0----|-----------------0----|----------------------|
B|------------3---------|------------3---------|-----------------1----|
G|-------4--------------|-------4--------------|------------2---------|
D|--5-------------------|--5-------------------|-------2--------------|
A|----------------------|----------------------|--0-------------------|
E|----------------------|----------------------|----------------------|

  de mi cruzada
e|--0-------------------|-----------------1----|--0---------0----1----|
B|-------1----0---------|------------3---------|-------3--------------|
G|-----------------2----|-------2--------------|----------------------|
D|----------------------|--0-------------------|----------------------|
A|----------------------|----------------------|----------------------|
E|----------------------|----------------------|----------------------|

                   Mi derrota anticipada                         sin
e|-----------------0----|-----------------0----|-----------------0----|
B|------------1---------|------------1---------|------------3---------|
G|-------2--------------|-------2--------------|-------4--------------|
D|--3-------------------|--3-------------------|--5-------------------|
A|----------------------|----------------------|----------------------|
E|----------------------|----------------------|----------------------|

  haberme puesto en pie         ya te vi               ya te encontré
e|-----------------0----|--0--------------0----|----------------------|
B|------------3---------|--5-------------------|--3--------------3----|
G|-------4--------------|--5---------5---------|--4---------4---------|
D|--5-------------------|-------5--------------|--5----5--------------|
A|----------------------|--3-------------------|--0-------------------|
E|----------------------|----------------------|----------------------|

                           ya probe del paraiso
e|----------------------|----------------------|-----------------0----|
B|-----------------1----|-----------------1----|------------1---------|
G|------------2---------|------------2---------|-------2--------------|
D|-------2--------------|-------2--------------|--3-------------------|
A|--0-------------------|--0-------------------|----------------------|
E|----------------------|----------------------|----------------------|


e|-----------------0----|-----------------3----|-----------------3----|
B|------------1---------|------------3---------|------------3---------|
G|-------2--------------|-------0--------------|-------0--------------|
D|--3-------------------|----------------------|----------------------|
A|----------------------|--2-------------------|--2-------------------|
E|----------------------|----------------------|----------------------|


[Chorus]

                           si no te vuelvo a ver                 no
e|-----------------3----|-----------------3----|-----------------3----|
B|------------3---------|------------3---------|------------3---------|
G|-------0--------------|-------0--------------|-------0--------------|
D|----------------------|----------------------|----------------------|
A|--3-------------------|--3-------------------|----------------------|
E|----------------------|----------------------|--3-------------------|

  entendere porque la vida           me enseño que tu existias
e|----------------------|----------------------|----------------------|
B|------------3---------|-----------------1----|-----------------1----|
G|-------0---------0----|------------0---------|------------0---------|
D|----------------------|-------3--------------|-------3--------------|
A|----------------------|----------------------|----------------------|
E|--3-------------------|--1-------------------|--1-------------------|

  
e|--0--------------0----|----------------------|-----------------3----|
B|--3---------3---------|--3--------------3----|------------3---------|
G|--0----0--------------|--0---------0---------|-------0--------------|
D|----------------------|-------0--------------|----------------------|
A|--3-------------------|--2-------------------|--3-------------------|
E|----------------------|----------------------|----------------------|

  Si no te vuelvo a ver                   Sera un mal chiste cruel jugada
e|-----------------3----|----------------------|-----------------3----|
B|------------3---------|-----------------3----|------------3---------|
G|-------0--------------|------------0---------|-------0--------------|
D|----------------------|-------0--------------|----------------------|
A|--3-------------------|----------------------|----------------------|
E|----------------------|--3-------------------|--3-------------------|

                 Una ilusión muy mal gastada
e|----------------------|----------------------|--0--------------0----|
B|-----------------1----|-----------------1----|--3---------3---------|
G|------------0---------|------------0---------|--0----0--------------|
D|-------3--------------|-------3--------------|----------------------|
A|----------------------|----------------------|--3-------------------|
E|--1-------------------|--1-------------------|----------------------|

                       Si no te vuelvo a ver      yo me conformo con que alguna
e|----------------------|----------------------|-------0--------0----|
B|--3--------------3----|-----------------1----|-------1--------3----|
G|--0---------0---------|------------2---------|-------2--------4----|
D|-------0--------------|-------2--------------|-------3--------5----|
A|--2-------------------|--0-------------------|-------0--------0----|
E|----------------------|----------------------|---------------------|

  vez te vi                                               No sabre de que estoy
e|----------------------|--5--------------5s----|--2----0-------------|
B|----------------------|------------3----------|-------1-------------|
G|-----------------4----|-----------------------|-------2-------------|
D|------------5---------|-------5---------------|-------2-------------|
A|-------0--------------|-----------------------|-------0-------------|
E|----------------------|-----------------------|---------------------|

(A partir de aca cambia un poco, por que entran otros instrumentos
pero se puede tocar igual que al inicio o ingeniartelas un poco)


[Verse 2]

    hecho                                               no habrá luz
e|-----------------1----|--0---------0h----1----|-----------------0----|
B|------------3---------|-------3---------------|------------1---------|
G|-------2--------------|-----------------------|-------2--------------|
D|--0-------------------|-----------------------|--3-------------------|
A|----------------------|-----------------------|----------------------|
E|----------------------|-----------------------|----------------------|

    ni fundamentos              no habra nada en que creer
e|-----------------0----|-----------------0----|-----------------0----|
B|------------1---------|------------3---------|------------3---------|
G|-------2--------------|-------4--------------|-------4--------------|
D|--3-------------------|--5-------------------|--5-------------------|
A|----------------------|----------------------|----------------------|
E|----------------------|----------------------|----------------------|

                   el final de la inocencia
e|----------------------|--0-------------------|-----------------1----|
B|-----------------1----|-------1----0---------|------------3---------|
G|------------2---------|-----------------2----|-------2--------------|
D|-------2--------------|----------------------|--0-------------------|
A|--0-------------------|----------------------|----------------------|
E|----------------------|----------------------|----------------------|

                                      Un monton de fotos viejas
e|--0---------0----1----|-----------------0----|-----------------0----|
B|-------3--------------|------------1---------|------------1---------|
G|----------------------|-------2--------------|-------2--------------|
D|----------------------|--3-------------------|--3-------------------|
A|----------------------|----------------------|----------------------|
E|----------------------|----------------------|----------------------|

                   recordando que existi               ya te vi
e|-----------------0----|-----------------0----|--0--------------0----|
B|------------3---------|------------3---------|--5-------------------|
G|-------4--------------|-------4--------------|--5---------5---------|
D|--5-------------------|--5-------------------|-------5--------------|
A|----------------------|----------------------|--3-------------------|
E|----------------------|----------------------|----------------------|

        ya te encontre                  ya probe del paraisoooo
e|----------------------|----------------------|----------------------|
B|--3--------------3----|-----------------1----|-----------------1----|
G|--4---------4---------|------------2---------|------------2---------|
D|--5----5--------------|-------2--------------|-------2--------------|
A|--0-------------------|--0-------------------|--0-------------------|
E|----------------------|----------------------|----------------------|


e|-----------------3----|-----------------0----|-----------------3----|
B|------------1---------|------------1---------|------------3---------|
G|-------0--------------|-------0--------------|-------0--------------|
D|--3-------------------|--3-------------------|----------------------|
A|----------------------|----------------------|--2-------------------|
E|----------------------|----------------------|----------------------|


[Chorus]

                                                  si no te vuelvo a ver
e|-----------------3----|-----------------3----|-----------------3----|
B|------------3---------|------------3---------|------------3---------|
G|-------0--------------|-------0--------------|-------0--------------|
D|----------------------|----------------------|----------------------|
A|--2-------------------|--3-------------------|--3-------------------|
E|----------------------|----------------------|----------------------|

                 no entendere porque la vida              me enseñoo
e|-----------------3----|----------------------|----------------------|
B|------------3---------|------------3---------|------------1---------|
G|-------0--------------|-------0---------0----|--------0--------0----|
D|----------------------|----------------------|----------------------|
A|----------------------|----------------------|----------------------|
E|--3-------------------|--3-------------------|--1-------------------|

     que tu existias
e|----------------------|--0--------------0----|----------------------|
B|------------1---------|--3---------3---------|--3--------------3----|
G|-------0---------0----|--0----0--------------|--0---------0---------|
D|----------------------|----------------------|-------0--------------|
A|----------------------|--3-------------------|--2-------------------|
E|--1-------------------|----------------------|----------------------|

                    si no te vuelvo a ver               sera un mal chiste
e|-----------------3----|-----------------3----|----------------------|
B|------------3---------|------------3---------|-----------------3----|
G|-------0--------------|-------0--------------|------------0---------|
D|----------------------|----------------------|-------0--------------|
A|--3-------------------|--3-------------------|----------------------|
E|----------------------|----------------------|--3-------------------|

    cruel jugada                     una ilusion           muy mal
e|-----------------3----|----------------------|----------------------|
B|------------3---------|------------1---------|------------1---------|
G|-------0--------------|-------0---------0----|-------0---------0----|
D|----------------------|----------------------|----------------------|
A|----------------------|----------------------|----------------------|
E|--3-------------------|--1-------------------|--1-------------------|

   gastadaaaaaaa
e|----------------------|--5--------------5----|-----------------2----|
B|------------0----3----|------------3---------|------------3---------|
G|-------0--------------|-------0--------------|-------2--------------|
D|----------------------|----------------------|--0-------------------|
A|--3-------------------|----------------------|----------------------|
E|----------------------|----------------------|----------------------|


(Sube 1 tono)

    Si no te vuelvo a veer               por dios te juro que no sigo
e|-----------------2----|-----------------0----|-----------------0----|
B|------------3---------|------------0---------|------------0---------|
G|-------2--------------|-------2--------------|-------2--------------|
D|--0-------------------|----------------------|----------------------|
A|----------------------|--0-------------------|--0-------------------|
E|----------------------|----------------------|----------------------|

              Suelto mis armas y me rindo
e|-----------------3----|-----------------3----|--2----------2p--0--------|
B|------------3---------|------------3---------|--3-------3---------3-----|
G|-------2--------------|-------2--------------|--2----2---------------2--|
D|----------------------|----------------------|--0-----------------------|
A|----------------------|----------------------|--------------------------|
E|--3-------------------|--3-------------------|--------------------------|

                                               Si no te vuelvo a veer
e|-----------------------------|-----------------2----|-----------------2----|
B|--2----------0h-2p-0---------|------------3---------|------------3---------|
G|--2-------2----------2-------|-------2--------------|-------2--------------|
D|--2----2----------------2----|--0-------------------|--0-------------------|
A|--0--------------------------|----------------------|----------------------|
E|-----------------------------|----------------------|----------------------|

                 Me sobran dias y semanas                     Que gracia
e|-----------------0----|-----------------0----|-----------------3----|
B|------------0---------|------------0---------|------------3---------|
G|-------2--------------|-------2--------------|-------2--------------|
D|----------------------|----------------------|----------------------|
A|--0-------------------|--0-------------------|----------------------|
E|----------------------|----------------------|--3-------------------|

    Tiene la mañana
e|-----------------3----|--2--------------2----|--2--------0--------|
B|------------3---------|--3---------3---------|--3--------2--------|
G|-------2--------------|--2----2--------------|--4--------2--------|
D|----------------------|--0-------------------|--4--------2--------|
A|----------------------|----------------------|--------------------|
E|--3-------------------|----------------------|--------------------|

  si no te vuelvo a ver           yo me conformo con que alguna vez
e|--2-------------------|---------------------|--------------------|
B|--3--------------3----|-------2----3--------|-----------5--------|
G|--4---------4---------|-------2----4--------|-----------6--------|
D|--4----4--------------|-------2----5--------|--L--------7--------|
A|----------------------|---------------------|--------------------|
E|----------------------|------------3--------|-----------5--------|

                                                       si no te vuelvo
e|-----------2---------|-------2----2--------|--0--------2---------|
B|-----------3---------|--3---------3--------|--2--------3---------|
G|-----------2----2----|------------4--------|--2--------4---------|
D|-----------0---------|------------4--------|--2--------4----4----|
A|---------------------|---------------------|---------------------|
E|---------------------|---------------------|---------------------|

    a ver             yo me conformo con que alguna veeeez      te viii
e|----------------------|--------------------|--------------------|
B|-------3---------2----|--3-----------------|--5-----------------|
G|--4--------------2----|--4-----------------|--6-----------------|
D|-----------------2----|--5-----------------|--7-----------------|
A|----------------------|--------------------|--------------------|
E|----------------------|--3-----------------|--5-----------------|


e|-----------------2----|--------2p--0-------------|-----------------------|
B|------------3---------|-----3---------3----------|------------3----------|
G|-------2--------------|--2---------------2-------|-------4------------4--|
D|--0-------------------|--------------------------|--4--------------4-----|
A|----------------------|---------------------2----|-----------------------|
E|----------------------|--------------------------|-----------------------|

                                         si no te vuelvo a veeeeer
e|--------------------------|-------2----------2p--0--|-----------------------|
B|--2h--3--2h--3------------|--3------------3---------|--3--------------------|
G|---------------------2----|------------2------------|-----2------------4----|
D|----------------0---------|-------------------------|-------------4---------|
A|--------------------------|-------------------------|--------2--------------|
E|--------------------------|-------------------------|-----------------------|

                                ^

e|---------------------------|--2----------------|
B|--3----------2h--3--2h--3--|--3----------------|
G|----------4----------------|--2----------------|
D|-------4-------------------|--0----------------|
A|---------------------------|-------------------|
E|---------------------------|-------------------|


Letra y acordes:


[Verse 1]

Am                    Dm
  Tendré Frio en cada Hueso
Fmaj7
Perderá sentido todo,
G6
Por lo que alguna vez luche
 Am                  Dm
Será el fin de mi cruzada
Fmaj7
Mi derrota anticipada,
G6                     C
Sin haberme puesto en pie
       G6              Am
Ya te vi ya te encontré,
             Fmaj7       G
Ya probé del paraisooooo..


[Chorus]

Cadd9                G                       F 
Si no te vuelvo a ver, no entenderé porque la vida me enseño
      Cadd9 G
Que tu existías
Cadd9                G                             F
Si no te vuelvo a ver, será un mal chiste cruel jugada una
                Cadd9   G
Ilusión muy mal gastada
    Am                 Fmaj7                     G6
Si no te vuelvo a ver, yo me conformo con que alguna vez te
Gadd9
Vi..


[Verse 2]

Am                      Dm
  No sabré de que estoy hecho
Fmaj7
No habrá luz ni fundamentos,
G6
No habrá nada en que creer
Am                      Dm
  El final de la inocencia
Fmaj7                 G6
Un montón de fotos viejas
                   C
Recordando que existí,
       G             Am
Ya te vi ya te encontré
             Fadd9  G
Ya probé del paraisooo


[Chorus]

Cadd9                G                       F
Si no te vuelvo a ver, no entenderé porque la vida me enseño
       Cadd9  G
Que tu existías
Cadd9                G                      F
Si no te vuelvo a ver, será un mal chiste cruel jugada una
               Cadd9  A 
Ilusión muy mal gastada


(sube 1 tono)

D                    A                           G
Si no te vuelvo a ver, por dios te juro que no sigo, suelto
              D   A
Mis armas y me rindo..
D                    A                       G
Si no te vuelvo a ver me sobran días y semanas que gracia tiene la
     D  A
Mañana
   Bm                 G                           A
Si no te vuelvo a ver, yo me conformo con que alguna vez te
D  A
Vi...
   Bm                         G                       A
Si no te vuelvo a ver, yo me conformo con que alguna vez te
D                Bm
Vi..
D                 Bm       D
Si no te Vuelvo a Ver.



Chords:

          F(coro)                 G6          A(donde sube un tono/final)
e|--------0-------------|----------0---------|----5----------5--------|
B|--------1-------------|----------3 --------|----5----------2--------|
G|--------0-------------|----------4---------|----6----------2--------|
D|--------3-------------|----------5---------|----7----------2--------|
A|--------0-------------|----------0---------|----7----------0--------|
E|--------1-------------|--------------------|----5-------------------|

         FAdd9                   Gadd9                 Cadd9

e|--------3-------------|----------5---------|---------3--------|
B|--------1-------------|----------3 --------|---------3--------|
G|--------2-------------|----------4---------|---------0--------|
D|--------3-------------|----------5---------|---------2--------|
A|--------0-------------|----------0---------|---------3--------|
E|----------------------|--------------------|------------------|



************************************

| h  Hammer-on
| p  Pull-off

************************************

            
            
Suggest correction
Creating personal tab
Creating personal tab
You can edit any tab online and save it as your Personal.

You can edit, replace or remove any tab part or add personal notes – all changes will be seen only by you.

Personal tabs can be accessed anytime from any device, even offline.
Learn more »
Give kudos to tab author, rate the tab!
1 2 3 4 5
comments
print report bad tab
guest
You may want to rate the tab now too:
select rating
Wanna post a correction for this tab? Suggest correction