Oops, an error
Loading. Please wait.

A Mi Ciudad Bass Tab

5 views 1 this week
no commentswrite comment
1 2 3 4 5
3 more votes to show rating
add to favorites
launch autoscroll
font size
0
reset
guitar tuner
×
Best way to learn
"A Mi Ciudad"
Autoscroll
slow
fast
+/-
esc
set tempo
stop
A mi Ciudad
Conjunto Instrumental
Arreglos: Sergio Bugueño Pizarro

Intro
 A6   A/D    Bm   C#m   F#m       Bm        E E4 E E4
G----------------------------------------------------------|
D--------0-0---------------------------------0--2----------|
A-0--0--2-2--2--2--4--4---0-4-0-4--2--2--2--4-----2--0-----|
E---0--0-------2--2--4-4-2---2-------2--2--------------0---|

1ª Estrofa
  A6    Bm     C#m    F#m        Bm               E E4 E E4
G------------------------------------------------------------|
D---------------------------------0-4--0-4--0-4--0-4--2------|
A-0--0--2-2-2-2-4-4----0-4--0-4--2----2----2----2-------2-0--|
E---0--0-2-2-2-2-4-4--2----2--------------------------------0|

Coro
  A         Bm         C#m     F#m                C#m    Bm
G-----------------------1---1-----------------------1--1------------|
D----2----2--0-4--0-4--2---2-----------------------2--2---0-4--0-4--|
A-0-4--0-4--2----2----4---4----0-4--0-4--0-4--0-4-4--4---2----2-----|
E-----------------------------2----2----2----2----------------------|

  D     E        E4    Am         G      Am        Em
G----2----------------------------------------------------------|
D-0-4----------2----------2----2---0---0----2----2--------------|
A---------2-0-4-----2?-0-3--0-3---2---2--0-3--0-3-----2---------|
E------0-4-------0-4-------------3---3-------------0-3--3-3-3---|

  C       F          C        G
G---0---0--------------0---0--------|
D--2---2--------------2---2----0----|
A-3---3----0-3--0-3--3---3----2-----|
E---------1----1-------------3---3--|

2ª Estrofa igual que la 1ª
Coro

Interludio

  Am       G       C      G      Am        Em      Am
G--------------------0--0--------------------------------------|
D----2---2---0---0--2--2----0--0----2----2--------------2----2-|
A-0-3--0-3--2---2--3--3----2--2--0-3--0-3-----2----2-0-3--0-3--|
E----------3---3----------3--3-------------0-3--0-3------------|

  Em   G
G------------|
D--------0---|
A----2--2----|
E-0-3--3-----|

  C       F        C      G
G---0--0------------0---0--------|
D--2--2------------2---2----0--0-| Repetir hasta el final
A-3--3----0-3?0-3-3---3----2?-2--|
E--------1----1-----------3?-3---|

Final Sib ? Fa - Do
Suggest correction
Give kudos to tab author, rate the tab!
1 2 3 4 5
comments
print report bad tab
guest
You may want to rate the tab now too:
select rating
Wanna post a correction for this tab? Suggest correction