Oops, an error
Loading. Please wait.

A Mi Ciudad Tab

12 views 3 this week
no commentswrite comment
1 2 3 4 5
3 more votes to show rating
add to favorites
launch autoscroll
font size
0
reset
how to read this tab
guitar tuner
Autoscroll
slow
fast
+/-
esc
set tempo
stop
Help us to improve Ultimate-Guitar.com Take our survey!
×
A mi Ciudad
Conjunto Instrumental Liceo Manuel de Salas
Arreglos: Sergio Bugueño Pizarro

Intro 1:

E-0-----0-----0-----0---------|
B---0-0---0-0---3-3---3-3-----|
G--2-2-2-2-2-2-2-2-2-2-2-2----|
D-----------------------------|
A-0-----0-----0-----0---------|
E-----------------------------|

Intro 2:
  A6          A6/         Bm              B#m          Fm
E-0-----0-----0-----0------2------2------4------4------2------2------|
B---0-0---0-0---3-3---3-3----3-3----3-3----5-5----5-5----2-2----2-2--|
G--2-2-2-2-2-2-2-2-2-2-2-2--4-4-4--4-4-4--6-6-6--6-6-6--2-2-2--2-2-2-|
D--------------------------------------------------------------------|
A-0-----0-----0-----0------2------2------4------4--------------------|
E------------------------------------------------------2------2------|
  Bm                          E4     E      E4
E-2------2------2------2------0------0------0------0-|
B---3-3----3-3----3-3----3-3----0-0----0-0----0-0----|
G--4-4-4--4-4-4--4-4-4--4-4-4--2-2-2--1-1-1--2-2-2---|
D----------------------------------------------------|
A-2------2------2------2-----------------------------|
E-----------------------------0------0------0------0-|

Las estrofas son igual que la Intro 2

Estribillo

A - Bm - B#m - Fm - B#m - Bm - D - E
Am - G - Am - Em - G7 - C - F - C - G

Luego vuelve otra estrofa y despues del 2º estribillo viene el interludio

Interludio:

Am - G - C - G - Am - Em - Am - Em

Punteo Final

E-3-1-0-------0-0--0-1-3-3-1-3-5-5--5-7-8--8--7-5-3-3--3-5-7-7-5-3-1-1-|
B-------3-1-0-1-1--1-3-5-5-3-5-6-6--6-8-10-10-8-6-5-5--5-6-8-8-6-5-3-3-|
G----------------------------------------------------------------------|
D----------------------------------------------------------------------|
A----------------------------------------------------------------------|
E----------------------------------------------------------------------|

E-1-0-3-1-0-------|
B-3---------3-1-0-|     Se repite punteo hasta el final
G-----------------|
D-----------------|
A-----------------|
E-----------------|


Final:

Bb - F - C.
Suggest correction
Give kudos to tab author, rate the tab!
1 2 3 4 5
comments
print report bad tab
guest
You may want to rate the tab now too:
select rating
Wanna post a correction for this tab? Suggest correction