Oops, an error
Loading. Please wait.

Maldito Querer Bass

36 views 1 this week
no commentswrite comment
1 2 3 4 5
3 more votes to show rating
add to favorites
launch autoscroll
font size
0
reset
guitar tuner
×
Best way to learn
"Maldito Querer"
Autoscroll
slow
fast
+/-
esc
set tempo
stop
Fig.1
G ------------------------------------------------------------------
D ------------------------------------------------------------------
A -55-555-555-555-5-88-888-888-888-8--------------------------------
E -----------------------------------88-888-888-888-8-66-666-666-666

Fig2.
G -------------------------------------------------------------------
D --7-6-7---7-6-7---10-9-10--10-9-10---------------------------------
A 55------55------88-------88---------10-9-10--10-9-10--8-7-8--8-7-8-
E ----------------------------------88-------88-------66-----66------


Fig.1
Voy a extrañarte no puedo odiarte aunque se que es mejor para mi que no vuelva a verte

Fig.1
voy a mentirme no puedo herirte fingire que kon tanto dolor que causaste sufriste ya

Fig.1
antes de conocerte yo se que aun podia amar en este mundo a quien que apareciese dia

Fig.1
ahora abri los ojos para mi no hay amor me duele mas tu indiferencia que las huelgas
o el smog


Fig.2


Fig.2
Quizas te he amado mucho errar pues es humano actuar por ti seguro se me va de las manos

cuando te das completo el frio es el castigo si das vuelta tu alma se aburren de estar
contigo


Fig.1
Debo raptarte no aguanto este dolor te atare a las patas del katre hasta que sientas
nuevamente amor

Fig.2
ya no me quieres me debo ir de este mundo prendere la tv y morire aburrido y profundo


Fig.2


Fig.2
Quizas te he amado mucho errar pues es humano actuar por ti seguro se me va de las manos

cuando te das completo el frio es el castigo si das vuelta tu alma se aburren de estar
contigo


Fig.1
Debo raptarte no aguanto este dolor te atare a las patas del katre hasta que sientas
nuevamente amor

Fig.2
ya no me quieres me debo ir de este mundo prendere la tv y morire aburrido y profundo
Suggest correction
Give kudos to tab author, rate the tab!
1 2 3 4 5
comments
print report bad tab
guest
You may want to rate the tab now too:
select rating
Wanna post a correction for this tab? Suggest correction