Oops, an error
Loading. Please wait.

Courante Tab

340 views 1 this week
no commentswrite comment
1 2 3 4 5
please rate
add to favorites
launch autoscroll
font size
0
reset
how to read this tab
guitar tuner
Tab Pro tools
  • play this tab
  • loop segment
  • change instrument
  • show fretboard
  • metronome
×
Best way to learn
"Courante"
Autoscroll
slow
fast
+/-
esc
set tempo
stop
Contributor
Courante
Santino Garsi (1542-1604)

All I know is, that Santino Garsi was a luthenist and composer from 
Parma, Italia. This Courante, or Corrente in Italian, is a nice and 
very easy piece. A courante is a rather fast ternary dance from the 
Renaissance and Baroque eras.
I made this tab by ear, so it is possible that some of the notes are
missing or superfluous. 
Please send your remarks or suggestions to: nenuok@yahoo.fr

Franзois Joseph Kuonen, 03.22.2010.

3/4
~170 beats per minute
* = let ring just one beat
Play each part twice, and then finish by playing the 1st part once.

First Part
Dolce
    |   |   |     |   |   |     |   |   |     |   |   |   
E||-------------|-------------|-------------|-------------|
B||-------------|-------------|-0-------2---|-3-----------|
G||---------2---|-2-----4-2---|---------2---|-------------|
D||-------------|-------------|-------------|-4-----------|
A||-------------|-------------|---------0---|-5-------0---|
E||-------------|-2-----------|-3-----------|-------------|

   |   |   |     |   |   |     |   |   |     |   |   |  
E|-------------|-------------|-------------|-------------|
B|-------5-3---|-2-------0---|-------------|-------------|
G|-------------|-------------|-2-------0---|-------------|
D|-------------|-------------|-------------|-4-----------|
A|-5*----------|-0-----------|-------------|-5-------0---|
E|-------------|---------3---|-2-------0---|-------------|

   |   |   |     |   |   |     |   |   |     |   |   |
E|-------3-2---|-0-----2-----|-------------|-------------|
B|-------------|---------5---|-3-----5-3---|-2-----3-5---|
G|-------------|-------------|-------------|-------------|
D|-------------|-------------|-------------|-------------|
A|-5*----------|-0-----------|-2-----------|-0-----------|
E|-------------|-------------|-------------|-------------|

   |   |   |     |   |   |     |   |   |     |   |   |     |   |   |
E|-------------|-------------|-0-----------|-------------|------------||
B|-------3-2---|-0-----2-3---|-------3-2---|-3-----------|------------||
G|-------------|-------------|-0-------2---|-------------|------------||
D|-------------|-------------|-------------|-4-----------|------------||
A|-0-----------|-------------|---------0---|-5-------0---|-5----------||
E|-------------|-3-----------|-3-----------|-------------|------------||End

Second Part
    |   |   |     |   |   |     |   |   |     |   |   |
E||-------------|-------------|-------------|-------------|
B||---------3---|-3-----5-3---|-2-----------|-0-----------|
G||-------------|-------------|-------4-2---|-0-----0-----|
D||-------------|-------------|-------------|-0-------0---|
A||-------------|-2-----------|-------------|-------------|
E||-------------|-------------|-2-----------|-3-----------|

   |   |   |     |   |   |     |   |   |     |   |   |
E|-------------|-------------|---------0---|-0-----------|
B|-------------|-0------ 2---|-3-----------|-2-----2-----|
G|---------2---|-------------|-------------|-------2-----|
D|-------------|-------------|-------------|-------------|
A|-------------|---------0---|-2-----------|-0-----------|
E|-3-------2---|-3-----------|---------4---|---------0*--|

   |   |   |     |   |   |     |   |   |     |   |   |
E|-------------|-0-------2---|-3-------0---|-2-----0-2---|
B|---------3---|-------------|-------------|-------------|
G|-------------|-------------|-------------|-------------|
D|-------------|---------0---|-2-----------|-0-----------|
A|-0*------2---|-4-----------|---------4---|-------------|
E|-------------|-------------|-------------|-------------|

   |   |   |     |   |   |     |   |   |     |   |   |     |   |   |
E|-------------|-------------|-0-----------|-------------|------------||
B|-------0-2---|-0-----2-3---|-------3-2---|-3-----------|------------||
G|-2-----------|-------------|-0-------2---|-------------|------------||
D|-------------|-------------|-------------|-4-----------|------------||
A|-------------|-------------|---------0---|-5-----------|-5*---------||
E|-2-----------|-3-------2---|-3-----------|---------5*--|------------||
comments
We did not receive enough feedback on this tab! Please rate:
print report bad tab
1 2 3 4 5
I want to post or [tab]
guest
You may want to rate the tab now too:
select rating
Please do not post tabs as comments. Select "correction" instead!